Oops, an error
Loading. Please wait.

Gloves Tab

version 1
version 1

Whole song

4,938 views 1 this week
3 commentsread comments
1 2 3 4 5
2 more votes to show rating
add to favorites
launch autoscroll
font size
0
reset
how to read this tab
guitar tuner
Autoscroll
slow
fast
+/-
esc
set tempo
stop
Help us to improve Ultimate-Guitar.com Take our survey!
×
Difficulty
novice
Standard Tuning
i looked at the tabs for this song and they all seemed wrong- this is how i play it:

Intro/Verse
e|-------------------------|
B|-------------------------|
G|9-9--7-7--11-11--9-9-0-9-|
D|9-9--7-7--11-11--9-9-0-9-|
A|7-7--5-5--9- 9---7-7-0-7-|
E|---------------------0---|

Chorus
e|--------------------------|
B|--------------------------|
G|9-xx-9-xx-9-xx-9-xx-11-11-|
D|9-xx-9-xx-9-xx-9-xx-11-11-|
A|7-xx-7-xx-7-xx-7-xx-9--9--|
E|0----0----0----0----------|

it's hard to figure out this breakdown part becuase Josh seems to just make bunches of noise
Breakdown
e|-----------------------------------------|
B|-----------------------------------------|
G|---9-------------------------------------|
D|-7----9-(the noise around the 12th fret)-|
A|-----------------------------------------|
E|-----------------------------------------|

you can easily figure which riff is used where

enjoy/comment/rate
please tell me if anything's wrong

--natasha
Suggest correction
Give kudos to tab author, rate the tab!
1 2 3 4 5
comments
print report bad tab
3 comments total.
0 reply
preteenjesus 21 Feb 21, 2007 12:23 PM

sorry guys- i meant for all of those x91111xx chords to be x81010xx

0 reply
hillel-funk 10 Feb 23, 2007 03:39 AM

with your correction there it sounds pretty perfect. dunno about the 9 7 9 bit

0 reply
inoino3 41 Aug 07, 2007 04:32 PM

in the intro verse, some of it sounds right except instead of playing this:
Intro/Verse
e|-------------------------|
B|-------------------------|
G|9-9--7-7--11-11--9-9-0-9-|
D|9-9--7-7--11-11--9-9-0-9-|
A|7-7--5-5---9--9--7-7-0-7-|
E|---------------------0---|

play this:

Intro/Verse
e|-----------------------|
B|-----------------------|
G|9-9--7-7--10-10--9-9-9-|
D|9-9--7-7--10-10--9-9-9-| and repeat
A|7-7--5-5---8--8--7-7-7-|
E|-----------------------|

i think this just sounds more like the song.

not so sure about the other bits, i'll try em out.

guest
You may want to rate the tab now too:
select rating
Wanna post a correction for this tab? Suggest correction