Oops, an error
Loading. Please wait.

Jack The Ripper Tab

7,389 views 9 this week
no commentswrite comment
1 2 3 4 5
accurate
x 3
add to favorites
launch autoscroll
font size
0
reset
how to read this tab
guitar tuner
Autoscroll
slow
fast
+/-
esc
set tempo
stop
Help us to improve Ultimate-Guitar.com Take our survey!
×
Author
JACK THE RIPPER

INTRO:
lots of noise
bass:
g|----------------------------------------------------------|
d|----------------------------------------------------------|
a|----------------------------------------------------------|
e|--0-0-3-0-3-0-5-3---0-0-3-0-3-0-5-3---0-0-3-0-3-0-5-3-----|

VERSE:
Bass:
g|----------------------------------------------------------|
d|----------------------------------------------------------|
a|----------------------------------------------------------|
e|--0-0-3-0-3-0-5-3---0-0-3-0-3-0-5-3---0-0-3-0-3-0-5-3-----|

guitar:
e|--0-----|
b|--0-----|
g|--0-----|
d|--0-----|
a|--0-----|
e|--0-----|

(just slightly to hear)
e|--1212121212121212---|
b|---------------------|
g|---------------------|
d|---------------------|
a|---------------------|
e|---------------------|

CHORUS
g|---------------------------------------------------------|
d|---------------------------------------------------------|
a|---------------------------------------------------------|
e|--77-5-77-5-77-5-7-5-7--55-3-55-3-55-3-5-3-5-------------|

after chorus:
guitar (with tremolo):
e|--0-----|
b|--0-----|
g|--0-----|
d|--0-----|
a|--0-----|
e|--0-----|

VERSE:
Bass:
g|----------------------------------------------------------|
d|----------------------------------------------------------|
a|----------------------------------------------------------|
e|--0-0-3-0-3-0-5-3---0-0-3-0-3-0-5-3---0-0-3-0-3-0-5-3-----|

e|--14-15-1414141414---|
b|---------------------|
g|---------------------|
d|---------------------|
a|---------------------|
e|---------------------|
play some notes around the 12/14/15 and 17th neck

CHORUS
g|---------------------------------------------------------|
d|---------------------------------------------------------|
a|---------------------------------------------------------|
e|--77-5-77-5-77-5-7-5-7--55-3-55-3-55-3-5-3-5-------------|

VERSE
fast part:
Bass:
g|----------------------------------------------------------|
d|----------------------------------------------------------|
a|----------------------------------------------------------|
e|--0-0-3-0-3-0-5-3---0-0-3-0-3-0-5-3---0-0-3-0-3-0-5-3-----|



(it depends which of both versions joshua uses)
e|----------------------------------------------------------|
b|----------------------------------------------------------|
g|----------------------------------------------------------|
d|----------------------------------------------------------|
a|----------------------------------------------------------|
e|--0-0-2-0-3-0-5-3---0-0-2-0-3-0-5-3---0-0-2-0-3-0-5-3-----|

e|----------------------------------------------------------|
b|----------------------------------------------------------|
g|----------------------------------------------------------|
d|----------------------------------------------------------|
a|----------------------------------------------------------|
e|--0-0-3-0-3-0-5-3---0-0-3-0-3-0-5-3---0-0-3-0-3-0-5-3-----|

CHORUS:
g|---------------------------------------------------------|
d|---------------------------------------------------------|
a|---------------------------------------------------------|
e|--77-5-77-5-77-5-7-5-7--55-3-55-3-55-3-5-3-5-------------|

e|----------------------------------------------------------|
b|----------------------------------------------------------|
g|----------------------------------------------------------|
d|--9999999-7-----------------------------------------------|
a|--9999999-7-----------------------------------------------|
e|--7777777-5-----------------------------------------------|

VERSE
fast part:
Bass:
g|----------------------------------------------------------|
d|----------------------------------------------------------|
a|----------------------------------------------------------|
e|--0-0-3-0-3-0-5-3---0-0-3-0-3-0-5-3---0-0-3-0-3-0-5-3-----|

(it depends which of both versions joshua uses)
e|----------------------------------------------------------|
b|----------------------------------------------------------|
g|----------------------------------------------------------|
d|----------------------------------------------------------|
a|----------------------------------------------------------|
e|--0-0-2-0-3-0-5-3---0-0-2-0-3-0-5-3---0-0-2-0-3-0-5-3-----|

e|----------------------------------------------------------|
b|----------------------------------------------------------|
g|----------------------------------------------------------|
d|----------------------------------------------------------|
a|----------------------------------------------------------|
e|--0-0-3-0-3-0-5-3---0-0-3-0-3-0-5-3---0-0-3-0-3-0-5-3-----|

CHORUS:
g|---------------------------------------------------------|
d|---------------------------------------------------------|
a|---------------------------------------------------------|
e|--77-5-77-5-77-5-7-5-7--55-3-55-3-55-3-5-3-5-------------|

e|----------------------------------------------------------|
b|----------------------------------------------------------|
g|----------------------------------------------------------|
d|--9999999-7-----------------------------------------------|
a|--9999999-7-----------------------------------------------|
e|--7777777-5-----------------------------------------------|

OUTRO:
e|----------------------------------------------------------|
b|----------------------------------------------------------|
g|----------------------------------------------------------|
d|--2--5--7-10----------------------------------------------|
a|--2--5--7-10----------------------------------------------|
e|--0--3--5--8----------------------------------------------| 2x

g|----------------------------------------------------------|
d|----------------------------------------------------------|
a|----------------------------------------------------------|
e|--0-0-3-0-3-0-5-3---0-0-3-0-3-0-5-3---0-0-3-0-3-0-5-3-----|



x
Suggest correction
Give kudos to tab author, rate the tab!
1 2 3 4 5
comments
print report bad tab
guest
You may want to rate the tab now too:
select rating
Wanna post a correction for this tab? Suggest correction