Oops, an error
Loading. Please wait.

Mirrors Image Bass Tab

version 1
version 1

Whole song

Interactive

8,740 views 9 this week
2 commentsread comments
1 2 3 4 5
accurate
x 3
add to favorites
launch autoscroll
font size
0
reset
guitar tuner
Autoscroll
slow
fast
+/-
esc
set tempo
stop
Help us to improve Ultimate-Guitar.com Take our survey!
×
Author
-------------------------------------------------------------------------------
			     MIRROR'S IMAGE - The Horrors
-------------------------------------------------------------------------------

Tabbed By: theafroguy 

Tuning: Drop A


Intro and verses

G|---------------------------------------------------------------------------|
D|---------------------------------------------------------------------------|
A|---------------------------------------------------------------------------|
A|0-0-0-3-5-5-5-7-5-3-3-3-5-3-2-2-2-2-3-2------------------------------------|

Chorus

G|---------------------------------------------------------------------------|
D|---------------------------------------------------------------------------|
A|0-0-0-0-0-0-0-0-2-2-2-2-2-2-2-2-3-3-3-3-3-3-3-3-2-2-2-2-2-2-2-2------------|
A|---------------------------------------------------------------------------|

And that's it! Good luck with the guitar though ;)

===============================================================================
Suggest correction
Give kudos to tab author, rate the tab!
1 2 3 4 5
comments
print report bad tab
2 comments total.
0 reply
nickgloucester 90 wrote on September 2 2009, 12:20 pm

nice one, correct notes n all but its played like this

G|-------------------------------------------------------------------------|
D|-------------------------------------------------------------------------|
A|0-0-0-3-5-5-5-7-5-3-3-3-5-3-2-2-2-2-3-2----------------------------------|
E|-------------------------------------------------------------------------|

G|-------------------------------------------------------------------------|
D|-7-7-7-7-7-7-7-7-9-9-9-9-9-9-9-9-10-10-10-10-10-10-10-10-9-9-9-9-9-9-9-9-|
A|-------------------------------------------------------------------------|
E|-------------------------------------------------------------------------|

0 reply
IndieJoe 1,997 wrote on January 16 2011, 01:06 pm

Correct but everything's an octave higher.

guest
You may want to rate the tab now too:
select rating
Please do not post tabs as comments. Select "correction" instead!