Oops, an error
Loading. Please wait.

Scarlet Fields Tab

version 1
version 1

Whole song

Interactive

4,844 views 1 this week
2 commentsread comments
1 2 3 4 5
1 last vote to show rating
add to favorites
launch autoscroll
font size
0
reset
how to read this tab
guitar tuner
Autoscroll
slow
fast
+/-
esc
set tempo
stop
Help us to improve Ultimate-Guitar.com Take our survey!
×
Author
Difficulty
novice
-----------------------------------------------------------------------------------
The Horrors – Scarlet fields
-----------------------------------------------------------------------------------

Tabbed by: Luko-man
Email: Just PM me

Tuning: Standard

Intro:

E|-------|
B|-------|
G|-10/12-|
D|-11/13-| Some effects
A|-------|
E|-------|

Verse/chorus

E|--------------|
B|--------------|
G|-9--11--7--4--|
D|-9--11--7--4--| Use trem arm and reverse delay reverb etc.
A|-7--9---5--2--|
E|--------------|

In the second chorus and after that he does some stuff with oscillation and feedback, 
frets etc. Just make noise.

That literally all he does. It’s hard to work out but I tried my best guys

-Luko
Suggest correction
Give kudos to tab author, rate the tab!
1 2 3 4 5
comments
print report bad tab
2 comments total.
0 reply
cotts94 10 Nov 13, 2012 06:08 PM

I reckon I've worked out the synth bit for the guitar

e -17----------------------------------
b ---19-15-19--15-19----15-19----15-19-
g -----------19------19-------19-------
d -------------------------------------
a -------------------------------------
e -------------------------------------

repeat this as necessary. I'm Sorry if this doesn't come up right, i have no idea how to write a tab

+1 reply
cotts94 10 Nov 13, 2012 06:18 PM

I've realised that my above tab was wrong. Just replace the 15's on the b string with 17's and it will sound better. Like so...

e-17----------------------------------
b---19-17-19--17-19----17-19----17-19-
g-----------19------19-------19-------

guest
You may want to rate the tab now too:
select rating
Wanna post a correction for this tab? Suggest correction