Oops, an error
Loading. Please wait.

Sea Within A Sea Bass Tab

version 1
version 1

Whole song

Interactive

6,379 views 9 this week
no commentswrite comment
1 2 3 4 5
please rate
add to favorites
launch autoscroll
font size
0
reset
guitar tuner
Autoscroll
slow
fast
+/-
esc
set tempo
stop
Help us to improve Ultimate-Guitar.com Take our survey!
×
Author
Difficulty
novice
This is my first tab, though i would start out with something easy.

Artist: The Horrors
Album: Primary Colours
Song: Sea Within A Sea



G|------------------------------------------------------------------------|
D|------------------------------------------------------------------------|
A|-9-9-9-9-9-9-9-9-9-9-9-9-9----------------------------------------------|
E|------------------------------------------------------------------------|

Play this until 1:13


G|-------------------------------------------------------------------------|
D|-------------------------------------------------------------------------|
A|-10-10-10-10-10-10-9-9-9-9-9-9-10-10-10-10-10-10-------------------------|
E|-------------------------------------------------------------------------|

until 3:21


G|-------------------------------------------------------------------------|
D|-------------------------------------------------------------------------|
A|-9-9-9-9-9-9-9-9-9-9-9-9-9/----------------------------------------------|
E|-------------------------------------------------------------------------|

until 4:01


G|------------------------------------------------------------------------|
D|------------------------------------------------------------------------|
A|------------------------------------------------------------------------|
E|-2-2-2-2-2\6-6-6-6-6-6/4-4-4-4-4\11-11-11-11-11/9-9-9-9-9-9-9-11-11-11--|

G|------------------------------------------------------------------------|
D|------------------------------------------------------------------------|
A|------------------------------------------------------------------------|
E|-2-2-2-2-2\6-6-6-6-6-6/4-4-4-4-4-4-4-4-4-4-4-6-6-6----------------------|



Play this until the end.
Suggest correction
Give kudos to tab author, rate the tab!
1 2 3 4 5
comments
print report bad tab
guest
You may want to rate the tab now too:
select rating
Please do not post tabs as comments. Select "correction" instead!