Oops, an error
Loading. Please wait.

Sea Within A Sea Tab

version 2
version 2

Whole song

Interactive

1,289 views 1 this week
no commentswrite comment
1 2 3 4 5
please rate
add to favorites
launch autoscroll
font size
0
reset
how to read this tab
guitar tuner
Autoscroll
slow
fast
+/-
esc
set tempo
stop
Help us to improve Ultimate-Guitar.com Take our survey!
×
Author
Difficulty
novice
-------------------------------------------------------------------------------
                            Ssea within a sea - The Horrors
-------------------------------------------------------------------------------
Tabbed by:Luko-man

Tuning:Standard Eadgbe

I used the youtube vid for it live, i've only tabbed the outro bit at the end after the 
where josh makes strange sounds with pitch shifters behind bridge etc, for the rest of 
song the other tab is right and i don't want to copy his work

e|-----------------------------------------------------|
B|-----------------------------------------------------|
G|-----------------------------------------------------|
D|-----------------------------------------------------|
A|-----------------------------------------------------|
E|--2-2-2-2-2-2-2-2/-6-6-6-6-6-6-6-6\-4-4-4-4-4-4-4-4/-|

e|--------------------------------------------------|
B|--------------------------------------------------|
G|--------------------------------------------------|
D|--------------------------------------------------|
A|--------------------------------------------------|
E|-11-11-11-11-11-11-11-11\-9-9-9-9-9-9-9-9-(11-11)-|

e|-------------------------------------------------------------------|
B|-------------------------------------------------------------------|
G|-------------------------------------------------------------------|
D|-------------------------------------------------------------------|
A|-------------------------------------------------------------------|
E|-2-2-2-2-2-2-2-2/-6-6-6-6-6-6-6-6\-4-4-4-4-4-4-4-4-4-4-4-4-4-4-4-4-|

Repeat that as needed then go on to this bit when it gets louder and "bigger"

e|-----------------------------------------------------|
B|-----------------------------------------------------|
G|-----------------------------------------------------|
D|-----------------------------------------------------|
A|--4-4-4-4-4-4-4-4/-8-8-8-8-8-8-8-8\-6-6-6-6-6-6-6-6--|
E|--2-2-2-2-2-2-2-2/-6-6-6-6-6-6-6-6\-4-4-4-4-4-4-4-4/-|

e|--------------------------------------------------|
B|--------------------------------------------------|
G|--------------------------------------------------|
D|--------------------------------------------------|
A|-13-13-13-13-13-13-13-13\-1111111111111111-13-13--|
E|-11-11-11-11-11-11-11-11\-9-9-9-9-9-9-9-9-(11-11)-|

e|-------------------------------------------------------------------|
B|-------------------------------------------------------------------|
G|-------------------------------------------------------------------|
D|-------------------------------------------------------------------|
A|-4-4-4-4-4-4-4-4/-6-6-6-6-6-6-6-6\-4-4-4-4-4-4-4-4-4-4-4-4-4-4-4-4-|
E|-2-2-2-2-2-2-2-2/-6-6-6-6-6-6-6-6\-4-4-4-4-4-4-4-4-4-4-4-4-4-4-4-4-|

then go on till the song finishes
Suggest correction
Give kudos to tab author, rate the tab!
1 2 3 4 5
comments
print report bad tab
guest
You may want to rate the tab now too:
select rating
Wanna post a correction for this tab? Suggest correction