Oops, an error
Loading. Please wait.

She Is The New Thing Bass Tab

2,509 views 1 this week
no commentswrite comment
1 2 3 4 5
please rate
add to favorites
launch autoscroll
font size
0
reset
guitar tuner
Autoscroll
slow
fast
+/-
esc
set tempo
stop
Help us to improve Ultimate-Guitar.com Take our survey!
×
Contributor
Difficulty
IndieJoe 1,849
intermediate
start at 00:25
G|---------------------------------------------|
D|---------------------------------------------|
A|0--0-4-3\--0--0-4-3\--0--0-4-3\--0--0-4-3p1--|
E|---------------------------------------------|

Verse:
G|---------------------------------------------|
D|-----------------------------------------4---|
A|0--0-4-3~--0--0-4-3~--0--0-4-3~--0--0-43--4--|
E|---------------------------------------------|

G|-----------------------------------------------3-------|
D|------------------------------------------------4-6p3--|
A|0--0-4p3-4p1--0--0-4p3-4p1--0--0-4p3-4p1--0--0---------|
E|-------------------------------------------------------|

========x2

Chorus:
G|-----------------------------------------------3-------|
D|------------------------------------------------4-6p3--|
A|0--0-4p3-4p1--0--0-4p3-4p1--0--0-4p3-4p1--0--0---------|
E|-------------------------------------------------------|

G|-------------------------------------------------------------------------|
D|-------------------------------------------------------------------------|
A|0--0-0--0-0-3--3-3--3-3-0--0-0--0-0-3--3-3--3-3-------------3--3-3--3-3--|
E|------------------------------------------------4--4-4--4-4--------------|

G|-------------------------|
D|-------------------------|
A|------------3--3-3--3-3--|
E|4--4-4--4-4--------------|

Breakdown:
G|---------------------------------------------|
D|---------------------------------------------|
A|0--0-4-3\--0--0-4-3\--0--0-4-3\--0--0-4-3p1--|
E|---------------------------------------------|

verse:
G|---------------------------------------------|
D|-----------------------------------------4---|
A|0--0-4-3~--0--0-4-3~--0--0-4-3~--0--0-43--4--|
E|---------------------------------------------|

G|-----------------------------------------------3-------|
D|------------------------------------------------4-6p3--|
A|0--0-4p3-4p1--0--0-4p3-4p1--0--0-4p3-4p1--0--0---------|
E|-------------------------------------------------------|

========x2

Chorus:
G|-----------------------------------------------3-------|
D|------------------------------------------------4-6p3--|
A|0--0-4p3-4p1--0--0-4p3-4p1--0--0-4p3-4p1--0--0---------|
E|-------------------------------------------------------|

G|-------------------------------------------------------------------------|
D|-------------------------------------------------------------------------|
A|0--0-0--0-0-3--3-3--3-3-0--0-0--0-0-3--3-3--3-3-------------3--3-3--3-3--|
E|------------------------------------------------4--4-4--4-4--------------|

G|--------------------------------------------------------------------------|
D|--------------------------------------------------------------------------|
A|------------3--3-3--3-3--0--0-0--0-0-3--3-3--3-3-0--3-3--3-3-0--0-0--0-0--|
E|4--4-4--4-4---------------------------------------------------------------|

Outro:
G|---------------------------------------------|
D|---------------------------------------------|
A|0--0-4-3\--0--0-4-3\--0--0-4-3\--0--0-4-3p1--|
E|---------------------------------------------|

G|-----------------------------------------------3-------|
D|------------------------------------------------4-6p3--|
A|0--0-4p3-4p1--0--0-4p3-4p1--0--0-4p3-4p1--0--0---------|x3
E|-------------------------------------------------------|

G|------|
D|------|
A|0~~---
E|------
comments
We did not receive enough feedback on this tab! Please rate:
print report bad tab
1 2 3 4 5
I want to post or [tab]
guest
You may want to rate the tab now too:
select rating
Please do not post tabs as comments. Select "correction" instead!