Oops, an error
Loading. Please wait.

She Is The New Thing Tab

version 1
version 1

Whole song

4,950 views 1 this week
no commentswrite comment
1 2 3 4 5
2 more votes to show rating
add to favorites
launch autoscroll
font size
0
reset
how to read this tab
guitar tuner
Autoscroll
slow
fast
+/-
esc
set tempo
stop
Help us to improve Ultimate-Guitar.com Take our survey!
×
Difficulty
novice
This is the basic structure for She is the New Thing. These tabs can be played anywhere 
the guitar, on any part of the fretboard on any string, and still sound right. Some of 
song consists of using the tabs as power chords. They should give you the basic idea.


9-9-11-12-11-9-9-------|
-----------------------|
-----------------------|
-----------------------|
-----------------------|
-----------------------|


9-9-12-11-12-9-9-12-11-12-9------------|
---------------------------------------|
---------------------------------------|
---------------------------------------|
---------------------------------------|
---------------------------------------|

Chorus tabs:

9-9-9-9-9-10-10-10-10-12-9-9-9-9-9-10-10-10-10-12-12-9-7-7-7-----|
 ----------------------------------------------------------------|
 ----------------------------------------------------------------|
 ----------------------------------------------------------------|
 ----------------------------------------------------------------|
 ----------------------------------------------------------------|

-7-7-8-8-8-8-8-10-7-7-7-7-7-8-8-8-10-10-7-5-|
--------------------------------------------|
--------------------------------------------|
--------------------------------------------|
--------------------------------------------|
--------------------------------------------|

Good luck working with this. If you know the tune it should be pretty easy.
Suggest correction
Give kudos to tab author, rate the tab!
1 2 3 4 5
comments
print report bad tab
guest
You may want to rate the tab now too:
select rating
Wanna post a correction for this tab? Suggest correction