Oops, an error
Loading. Please wait.

She Is The New Thing Tab

version 2
version 2

Whole song

2,323 views 1 this week
1 commentread comment
1 2 3 4 5
accurate
x 1
add to favorites
launch autoscroll
font size
0
reset
how to read this tab
guitar tuner
Tab Pro tools
  • play this tab
  • loop segment
  • change instrument
  • show fretboard
  • metronome
Autoscroll
slow
fast
+/-
esc
set tempo
stop
Contributor
Difficulty
novice
hello there, this is the first of hopefully many tabs I will make......and yess before 
ask, i am quite the perfectionist with preety much everything as you'll see on this....

(this will include some parts that sound as though they are the bass line on the record 
on most of the song, Joshua plays the same as Tomethy.)

- - - - - - - - - - - - - - - - - - -|
- - - - - - - - - - - - - - - - - - -|
- - - - - - - - - - - - - - - - - - -|   (distortion for first 15 secs)
- - - - - - - - - - - - - - - - - - -|
-5-8-5-3-1-3-1-0-5- - - - - - - - - -|
- - - - - - - - - - - - - - - - - - -|


- - - - - - - - - - - - - - - - - - -|
- - - - - - - - - - - - - - - - - - -|
- - - - - - - - - - - - - - - - - - -|
- - - - - - - - - - - - - - - - - - -|
-5-5-9-8=9 x 3 (per verse then:) 5-5-9-8-9 x 1 " "
- - - - - - - - - - - - - - - - - - -|
after this the lyrics kick in and for the next 4 bars it is just feedback and one chord 
is vibrated( its a 'd minor' chord)and after that 4 bars of pretty much nothing is a 
played for the next 4 bars afterwards

-5-|-10-10-12-11-12-11-12 - - - - - -|
-6-|- - - - - - - - - - - - - - - - -|
-7-|- - - - - - - - - - - - -10 - -10 -|     + these 4 notes on last bar
-7-|- - - - - - - - - - -12- - -12 -  -|      /______
-5-|- - - - - - - - - - - - - - - - -|        \
-x-|- - - - - - - - - - - - - - - - -|

first chorus: same as first 4 bars of the verse but in bar chords
(you might think that it sounds not right when played to the record which is because the 
changes slightly throughout these first choruses)

second chorus (4 bars between this and first chorus):for each chord which has been 
off counts for a bar.........the first two sections is repeated twice aswell as the third and 
sections which are repeated twice

- -|- - - - -|- -|- - - - |
- -|- - - - -|- -|- - - - |
- -|- - - - -|- -|- - - - |
-7-|-8- -10 -|-5-|-7- -10 |
-5-|-6- -8  -|-3-|-5- -8  |
- -|- - - - -|- -|- - - - |

and thats about it really, just repeating this formula, i think ive got it down rather 
but if anything is wrong please say something, btw tis a great song and porbably along 
count in fives as their most acessible songs
comments
We did not receive enough feedback on this tab! Please rate:
print report bad tab
1 2 3 4 5
1 comment total.
0 reply
tom_shirley wrote on July 1 2007, 12:21 pm

I find it's easier to play the intro riff like this. Same notes just easier (Y)

e|--------------------|
B|--------------------|
G|--------------------|
D|--------------------|
A|-5-8-5-----------5--|
E|-------8-6-8-6-5----|

I want to post or [tab]
guest
You may want to rate the tab now too:
select rating
Please do not post tabs as comments. Select "correction" instead!