Oops, an error
Loading. Please wait.

Still Life Bass Tab

10,409 views 15 this week
no commentswrite comment
1 2 3 4 5
accurate
x 4
add to favorites
launch autoscroll
font size
0
reset
guitar tuner
Autoscroll
slow
fast
+/-
esc
set tempo
stop
Help us to improve Ultimate-Guitar.com Take our survey!
×
Author
Intro/Verse (0:25) 7x (3 w/o vocals)
G |---------------------------------------------------------------------------------------|
D |---------------------------------------------------------------------------------------|
A |12-xx-12-xx-12-xx-12-12-10-xx-10-xx-10-xx-10-10-5-xx-5-xx-5-xx-5-5-5-xx-5-xx-5-xx-5-5--|
E |---------------------------------------------------------------------------------------|

Chorus (1:44)
G |---------------------------------------------------------------------------------|
D |---------------------------------------------------------------------------------|
A |-3-3-3-3-3-3-3-3-/10-10-10-10-10-10-10-10-5-x-5-x-5-x-5-5-5-xx-5-xx-5-xx-/15-15--|
E |---------------------------------------------------------------------------------|

G |-----------------------------------------------------------------------------------|
D |-----------------------------------------------------------------------------------|
A |-12-12-12-12-12-12-12-12-/10-10-10-10-10-10-10-10-5-xx-5-x-5-x-5-5-5-xx-5-xx-5-xx--|
E |-----------------------------------------------------------------------------------|

Verse (2:07) 4x (1 w/o vocals)

Chorus (2:52)

Instrumental Break(3:15)
G |------------------------------------------------------------------|
D |------------------------------------------------------------------|
A |-0-0-0-0-0-0-0-0-3-3-3-3-3-3-3-3-5-5-5-5-5-5-555-5-5-5-5-5-5-5-5--|
E |------------------------------------------------------------------|

G |-----------------------------------------------------------------------------------|
D |-----------------------------------------------------------------------------------|
A |-12-12-12-12-12-12-12-12-/10-10-10-10-10-10-10-10-5-5-5-5-5-5-5-5-5-5-5-5-5-5-5-5--|
E |-----------------------------------------------------------------------------------|

Chorus(3:37) x2

Chorus/Outro(4:22)
G |---------------------------------------------------------------------------|
D |---------------------------------------------------------------------------|
A |-3-3-3-3-3-3-3-3-/10-10-10-10-10-10-10-10-5-5-5-5-5-5-5-5-5-5-5-5-5-3-2-0--|
E |---------------------------------------------------------------------------|

G |-----------------------------------------------------------------------|
D |-----------------------------------------------------------------------|
A |--------------------------------------5-5-5-5-5-5-5-5-5-5-5-5-5-5-5-0--|
E |-5-5-5-5-5-5-5-5-3-3-3-3-3-3-3-3---------------------------------------|

G |---------------------------------------------------------------------------|
D |---------------------------------------------------------------------------|
A |-3-3-3-3-3-3-3-3-/10-10-10-10-10-10-10-10-5-5-5-5-5-5-5-3-5-5-5-5-5-5-5-0--|
E |---------------------------------------------------------------------------|

Outro(4:56) repeat/fade out
G |------------------------------------------------------------------|
D |------------------------------------------------------------------|
A |-5-5-5-5-5-5-5-0-5-5-5-5-5-5-5-0-5-5-5-5-5-5-5-0-5-5-5-5-5-5-5-0--|
E |------------------------------------------------------------------|
Suggest correction
comments
print report bad tab
guest
You may want to rate the tab now too:
select rating
Please do not post tabs as comments. Select "correction" instead!