Oops, an error
Loading. Please wait.

An Introduction To The Album tab

version 2
version 2

Whole song

Interactive

1,414 views 21 this week
no commentswrite comment
1 2 3 4 5
3 more votes to show rating
add to favorites
×
Save as Personal and add changes to this tab that will be seen only by you. Learn more ›
×
You can save this tab as Personal to edit and correct it or add notes. All changes will be seen only by you. Learn more »
launch autoscroll
font size
0
reset
how to read this tab
guitar tuner
edit
Autoscroll
slow
fast
+/-
esc
set tempo
stop
Artist:  The Hotelier
Song Name:  An Introduction To The Album 
Cover of this: https://www.youtube.com/watch?v=tCHo_mW-ZqI

Tuning:  Eb (Capo 5th Fret)
TABBED BY SugarPillCovers182 https://www.youtube.com/channel/UCsGe05GDlujq9-VtUDvFXvw
SUPPORT HIM (You can also buy tabs) https://www.facebook.com/Sugarpill-496381943784557/timeline/


Intro / Verse (2nd time around, stay on the 5,7 chord until it goes to the verse) 
eb-----------------------------------------------------------------------------|
Bb---0-------------------0----1------------1--0---8-----------10---------------|
Gb--------0----------2------------0---------------------0-----------0----------|
Db------------0-----------------------0---------------------0-----------0------|
Ab----------------------------0---------0---------7------------7---------------|
Eb---3------------3------------------------------------------------------------|

eb-----------------------------------------------------------------------------|
Bb--7---------8----------5-----------7/8---3------------3----------------------|
Gb------0---------0---------0------------------0-----------0-------------------|
Db---------0---------0---------0------------------0----------------------------|
Ab--5---------5----------3--------3---------2--------2-------------------------|
Eb-----------------------------------------------------------------------------|

eb-----------------------------------------------|
Bb---7-----5----3------5-------------------------|
Gb------0-----------0----------------------------|
Db-----------------------------------------------|
Ab---5----------5--------------------------------|
Eb-----------------------------------------------|

'Wave Goodbye' Part
eb----------------------------------------------------------------------------|
Bb---5-----------5-----8----------8------7-----------7------------------------|
Gb------0----------0------0---------0-------0----------0----------------------|
Db---------0-----------------0------------------0-----------------------------|
Ab---3-------3---------7-------7---------5--------5---------------------------|
Eb----------------------------------------------------------------------------|

(x4)
eb----------------------------------------------------------------------------|
Bb---0-----------0--------7----------7-------5----------5-----5----------5----|
Gb------0-----------0--------0---------0--------0---------0------0---------0--|
Db---------0--------------------0-------------------0----------------0--------|
Ab------------------------5-------5----------3--------3-------3-------3-------|
Eb---3--------3---------------------------------------------------------------|

*Repeat Verse (x3)

'You shot from the hip' Part
eb----------------------------------------------------------------------------|
Bb---5-----------5-----8----------8------7-----------7------7-----------------|
Gb------0----------0------0---------0-------0----------0----------------------|
Db---------0-----------------0------------------0-----------------------------|
Ab---3-------3---------7-------7---------5--------5---------5-----------------|
Eb----------------------------------------------------------------------------|

(x4)
eb----------------------------------------------------------------------------|
Bb---0----------0--------7----------7--------5----------5-----5----------5----|
Gb------0----------0--------0---------0---------0---------0------0---------0--|
Db---------0-------------------0--------------------0----------------0--------|
Ab-----------------------5-------5-----------3--------3-------3--------3------|
Eb---3--------3---------------------------------------------------------------|

*Repeat Verse (First few chords, only pick once) (x3)
Verse Change (at the end of the 3rd time round)
eb----------------------------------------------------------------------------|
Bb--7----------7--------------------------------------------------------------|
Gb-----0----------0-----------------------------------------------------------|
Db--------0-------------------------------------------------------------------|
Ab--5-------------------------------------------------------------------------|
Eb----------------------------------------------------------------------------|

eb----------------------------------------------------------------------------|
Bb---0-------------------0----1------------1--0---8-----------10--------------|
Gb--------0----------2------------0---------------------0-----------0---------|
Db------------0-----------------------0---------------------0-----------0-----|
Ab----------------------------0---------0---------7------------7--------------|
Eb---3------------3-----------------------------------------------------------|

eb--------------------------------------------------------------------------------------|
Bb--7---------8----------5---------5----------8--------8--------7---------7---------7---|
Gb------0---------0---------0---------0----------0--------0--------0---------0----------|
Db---------0---------0---------0---------0----------0--------0-------0---------0--------|
Ab--5---------5----------3---------3----------7--------7---------5--------5---------5---|
Eb--------------------------------------------------------------------------------------|

*Repeat Verse (Until the song ends)


Key
b = Bend
r = Release
/ = Slide Up
\ = Slide Down
h = Hammer On
p = Pull Off
x = Mute String
~ = Sustain
PM... = Palm Mute
Natural Harmonic = < >

            
            
Suggest correction
Creating personal tab
Creating personal tab
You can edit any tab online and save it as your Personal.

You can edit, replace or remove any tab part or add personal notes – all changes will be seen only by you.

Personal tabs can be accessed anytime from any device, even offline.
Learn more »
Give kudos to tab author, rate the tab!
1 2 3 4 5
comments
print report bad tab
guest
You may want to rate the tab now too:
select rating
Wanna post a correction for this tab? Suggest correction