Oops, an error
Loading. Please wait.

Dendron tab

version 1
version 1

Whole song

2,341 views 30 this week
no commentswrite comment
1 2 3 4 5
x 5
add to favorites
×
Save as Personal and add changes to this tab that will be seen only by you. Learn more ›
×
You can save this tab as Personal to edit and correct it or add notes. All changes will be seen only by you. Learn more »
launch autoscroll
font size
0
reset
how to read this tab
guitar tuner
edit
Autoscroll
slow
fast
+/-
esc
set tempo
stop
Author
The Hotelier
Home Like Noplace Is There
Dendron

Half Step Down. I dont think this is exactly how the band plays it, but it sounds good to me. if you dont like
it, upload a better one i guess.
For the first bar ill match the chords to the words above, but after that just figure it out, its not hard.



  You cut your ties, felt better off. Salutations to your son.
e|-------------------------0-----------0----------0----------------------------|
B|--------------3----------3-----------3----------3--------3-------------------|
G|--------------0----------2-----------2----------2--------0-------------------|
D|--------------0----------2-----------0----------2--------0-------------------|
A|--------------x----------0-----------2----------0--------x-------------------|
E|--------------3------------------------------------------3-------------------|


  Awoke to find, you heading out. With your white collar undone
e|-------------------------0-----------0----------0----------------------------|
B|--------------3----------3-----------3----------3--------3-------------------|
G|--------------0----------2-----------2----------2--------0-------------------|
D|--------------0----------2-----------0----------2--------0-------------------|
A|--------------x----------0-----------2----------0--------x-------------------|
E|--------------3------------------------------------------3-------------------|

  You placed a bar, I played a game to see how low that I could go (repeat until --> )
e|----------0------0-----0----------0----0--------------------------------------|
B|----3-----3------3-----3----3-----3----3----3---------------------------------|
G|----0-----2------2-----2----0-----2----2----0---------------------------------|
D|----0-----2------0-----2----0-----0----2----0---------------------------------|
A|----x-----0------2-----0----x-----2----0----x---------------------------------|
E|----3-----------------------3---------------3---------------------------------|

  and we’re following our fathers down the drain.
e|------0----0---------------0------------------------------------------------|
B|------3----3----3----------3------------------------------------------------|
G|------2----2----0----------2------------------------------------------------|
D|------0----2----0----------2----X16-----------------------------------------|
A|------2----0----x----------0------------------------------------------------|
E|----------------3-----------------------------------------------------------|

  Leading into the palm muted second verse
e|---------------------------------------------------------------------------|
B|-------3---3---3---3---3---------------------------------------------------|
G|-----2---2---2---2-----0---------------------------------------------------|
D|-----------------------0---------------------------------------------------|
A|-----------------------x---------------------------------------------------|
E|-----------------------3---------------------------------------------------|

Pretty much repeat everything that just happened and then the chorus is something like this:
for the first bar of the chorus ill match the chords to the words again to help the noobs

CHORUS

  Wake me, wake me up (Pictures of you smiling in times at times when i just couldnt be around)
e|-0--------0-----------0---------------0-------------------------------------|
B|-3--------3-----------3---------------3-------------------3-----------------|
G|-2--------2-----------2---------------2-------------------0-----------------|
D|-0--------2-----------0---------------2-------------------0-----------------|
A|-0--------0-----------2---------------0-------------------x-----------------|
E|----------------------------------------------------------3-----------------|

okay so pretty much right after that part the whole rest of the song is just variations of this,
at one point there is some picking at individual notes of these chords too, just listen for it in the song.

e|----0-----0-----------------------------------------------------------------|
B|----3-----3----3------------------------------------------------------------|
G|----2-----2----0------------------------------------------------------------|
D|----0-----2----0------------------------------------------------------------|
A|----2-----0----x------------------------------------------------------------|
E|---------------3------------------------------------------------------------|

Then the outro acoustic lead (play this twice):
e|--------------------------------------------------------------------------------------------------|
B|--3--------3----5------------5-----7---3---5---2-----0-----------0----3-----------3---2---------2-|
G|-----2---------------2-----------------------------------0-----------------2--------------2-------|
D|--------------------------------------------------------------------------------------------------|
A|--2-----2-------4--------4---------5---2---4---0----------------------2-------2-------0------0----|
E|-----------------------------------------------------3-------3------------------------------------|

the second time you play that through instead of ending the riff on the 2nd fret of the b string, do this:
e|-------------------------------------------------------14-------------------------|
B|--2--------2---/3----2---------------------------------15-------------------------|
G|------2------------------2-----------------------------14-------------------------|
D|-------------------------------------------------------0--------------------------|
A|-------------------------------------------------------0--------------------------|
E|----------------------------------------------------------------------------------|
                                                         ^^^ end song on that chord

            
            
Suggest correction
Creating personal tab
Creating personal tab
You can edit any tab online and save it as your Personal.

You can edit, replace or remove any tab part or add personal notes – all changes will be seen only by you.

Personal tabs can be accessed anytime from any device, even offline.
Learn more »
comments
print report bad tab
guest
You may want to rate the tab now too:
select rating
Wanna post a correction for this tab? Suggest correction