Oops, an error
Loading. Please wait.

End Of Reel tab

937 views 12 this week
2 commentsread comments
1 2 3 4 5
x 3
add to favorites
×
Save as Personal and add changes to this tab that will be seen only by you. Learn more ›
×
You can save this tab as Personal to edit and correct it or add notes. All changes will be seen only by you. Learn more »
launch autoscroll
font size
0
reset
how to read this tab
guitar tuner
edit
Autoscroll
slow
fast
+/-
esc
set tempo
stop
The Hotelier - End of Reel

So the open Bb and eb strings throughout on all the chords are supposed to be played in a very subtle way, or
you can just not play them at all, but I prefer to give the chords a bit of flair with them, and it sounds
like the band does this as well.


Tuning: Half-step down


Intro:
eb|----------0------|
Bb|-----------------|
Gb|--------8--------| x8
Db|---7h9-----------|
Ab|-7---------------|
Eb|-----------------|


Verse: (0:15) (with intro over top)
eb|-0-----------------------0-----------------------|
Bb|-0-----0-----0-----0-----0-----0-----0-----0-----|
Gb|-1-1-1-1-1-1-1-1-1-1-1-1-2-2-2-2-2-2-2-2-2-2-2-2-| x2       (the open strings here are supposed to be
Db|-2-2-2-2-2-2-2-2-2-2-2-2-2-2-2-2-2-2-2-2-2-2-2-2-|                played very quietly if at all)
Ab|-2-2-2-2-2-2-2-2-2-2-2-2-0-0-0-0-0-0-0-0-0-0-0-0-|
Eb|-0-0-0-0-0-0-0-0-0-0-0-0-------------------------|

eb|-0-----------0-----------0-----------------------|
Bb|-0-----0-----0-----0-----0-----0-----0-----0-----|
Gb|-6-6-6-8-8-8-9-9-9-4-4-4-2-2-2-2-2-2-2-2-2-2-2-2-| x2
Db|-6-6-6-9-9-9-9-9-9-4-4-4-2-2-2-2-2-2-2-2-2-2-2-2-|
Ab|-4-4-4-6-6-6-7-7-7-2-2-2-0-0-0-0-0-0-0-0-0-0-0-0-|
Eb|-------------------------------------------------|


Verse: (0:45) 
eb|-0-----------------------0-----------------------|
Bb|-0-----0-----0-----0-----0-----0-----0-----0-----|
Gb|-1-1-1-1-1-1-1-1-1-1-1-1-2-2-2-2-2-2-2-2-2-2-2-2-| x4       
Db|-2-2-2-2-2-2-2-2-2-2-2-2-2-2-2-2-2-2-2-2-2-2-2-2-|               
Ab|-2-2-2-2-2-2-2-2-2-2-2-2-0-0-0-0-0-0-0-0-0-0-0-0-|
Eb|-0-0-0-0-0-0-0-0-0-0-0-0-------------------------|

eb|-0-----------0-----------0-----------------------|
Bb|-0-----0-----0-----0-----0-----0-----0-----0-----|
Gb|-6-6-6-8-8-8-9-9-9-4-4-4-2-2-2-2-2-2-2-2-2-2-2-2-| x2
Db|-6-6-6-9-9-9-9-9-9-4-4-4-2-2-2-2-2-2-2-2-2-2-2-2-|
Ab|-4-4-4-6-6-6-7-7-7-2-2-2-0-0-0-0-0-0-0-0-0-0-0-0-|
Eb|-------------------------------------------------|

Interlude: (1:29)
eb|----------0------|
Bb|-----------------|
Gb|--------8--------| x12
Db|---7h9-----------|
Ab|-7---------------|
Eb|-----------------|

Bridge: (1:51) (with intro over top)
eb|-0-----------------------0----------------------|
Bb|-0-----------------------0----------------------|
Gb|-9-----8-----6-----4-----2----------------------| x2
Db|-9-----9-----6-----4-----2----------------------|
Ab|-7-----6-----4-----2-----0----------------------|
Eb|-0----------------------------------------------|

eb|-------------------------0----------------0-0-0-|
Bb|-------------------------0----------------0-0-0-|
Gb|-9-9-9-8-8-8-6-6-6-4-4-4-2----------------2-2-2-| x2 (play those last 3 chords only on the 2nd time)
Db|-9-9-9-9-9-9-6-6-6-4-4-4-2----------------2-2-2-|
Ab|-7-7-7-6-6-6-4-4-4-2-2-2-0----------------0-0-0-|
Eb|------------------------------------------------|


Verse: (2:21)
*underneath this verse, theres a distorted guitar, just palm muting the power chords here*
eb|-0-----------------------0-----------------------|
Bb|-0-----0-----0-----0-----0-----0-----0-----0-----|
Gb|-1-1-1-1-1-1-1-1-1-1-1-1-2-2-2-2-2-2-2-2-2-2-2-2-| x2       
Db|-2-2-2-2-2-2-2-2-2-2-2-2-2-2-2-2-2-2-2-2-2-2-2-2-|               
Ab|-2-2-2-2-2-2-2-2-2-2-2-2-0-0-0-0-0-0-0-0-0-0-0-0-|
Eb|-0-0-0-0-0-0-0-0-0-0-0-0-------------------------|
                                                                             this part is played very softly
eb|-0-----------------------0-----------------0-----------------------------0-------------------------------|
Bb|-0-----0-----0-----0-----0-----0-----0-----0-0-0-------------------------0----------------0--------------|
Gb|-6-6-6-6-6-6-6-6-6-6-6-6-4-4-4-4-4-4-4-4-4-4-4-4-9-9-9-8-8-8-6-6-6-4-4-4-2--------4-------2-------4------|
Db|-6-6-6-6-6-6-6-6-6-6-6-6-4-4-4-4-4-4-4-4-4-4-4-4-9-9-9-9-9-9-6-6-6-4-4-4-2--------4-------2-------4------|
Ab|-4-4-4-4-4-4-4-4-4-4-4-4-2-2-2-2-2-2-2-2-2-2-2-2-7-7-7-6-6-6-4-4-4-2-2-2-0--------2-------0-------2------|
Eb|---------------------------------------------------------------------------------------------------------|


Chorus: (3:05)
eb|-0-0-0-0-0-0-0-0-0-0-0-0-0-0-0-0-0-0-0-0-0-0-0-0-0-0-0-0-0-0-0-0-0-0-0-0-0-0-0-0-0-0-0-0-0-0-0-0-|
Bb|-0-0-0-0-0-0-0-0-0-0-0-0-0-0-0-0-0-0-0-0-0-0-0-0-0-0-0-0-0-0-0-0-0-0-0-0-0-0-0-0-0-0-0-0-0-0-0-0-|
Gb|-1-1-1-1-1-1-1-1-1-1-1-1-2-2-2-2-2-2-2-2-2-2-2-2-6-6-6-6-6-6-9-9-9-9-9-9-6-6-6-4-4-4-2-2-2-2-2-2-| x2
Db|-2-2-2-2-2-2-2-2-2-2-2-2-2-2-2-2-2-2-2-2-2-2-2-2-6-6-6-6-6-6-9-9-9-9-9-9-6-6-6-4-4-4-2-2-2-2-2-2-|
Ab|-2-2-2-2-2-2-2-2-2-2-2-2-0-0-0-0-0-0-0-0-0-0-0-0-4-4-4-4-4-4-7-7-7-7-7-7-4-4-4-2-2-2-0-0-0-0-0-0-|
Eb|-0-0-0-0-0-0-0-0-0-0-0-0-------------------------------------------------------------------------|

eb|-0-0-0-0-0-0-0-0-0-0-0-0-|--|-0-0-0-0-0-0-|
Bb|-0-0-0-0-0-0-0-0-0-0-0-0-|--|-0-0-0-0-0-0-|
Gb|-6-6-6-4-4-4-2-2-2-2-2-2-|x3|-2-2-2-2-2-2-|
Db|-6-6-6-4-4-4-2-2-2-2-2-2-|--|-2-2-2-2-2-2-|
Ab|-4-4-4-2-2-2-0-0-0-0-0-0-|--|-0-0-0-0-0-0-|
Eb|-------------------------|--|-------------|

Post-Chorus (3:47)
eb|-0-0-0-0-0-0-0-0-0-0-0-0-0-0-0-0-0-0-0-0-0-0-0-0-|
Bb|-0-0-0-0-0-0-0-0-0-0-0-0-0-0-0-0-0-0-0-0-0-0-0-0-|
Gb|-4-4-4-4-4-4-4-4-4-4-4-4-6-6-6-6-6-6-2-2-2-2-2-2-| x3.5 (let the A chord ring out on the 3rd time) 
Db|-4-4-4-4-4-4-4-4-4-4-4-4-6-6-6-6-6-6-2-2-2-2-2-2-|               
Ab|-2-2-2-2-2-2-2-2-2-2-2-2-4-4-4-4-4-4-0-0-0-0-0-0-|
Eb|-------------------------------------------------|




Outro: (4:13)
eb|-9---9--9---9--9---7---11---11-11---11-11---11---|
Bb|-------------------------------------------------|
Gb|-9---9--9---9--9---9---11---11-11---11-11---11---|  keep repeating this through out the outro, 
Db|-------------------------------------------------|         muting the strings occasionally      
Ab|-------------------------------------------------|
Eb|-------------------------------------------------|

Other guitar:
eb|-0-------------------------0----------------------------|
Bb|-0-------------------------0----------------------------|
Gb|-2-------------------------6----------------------------| x3.5   
Db|-2-------------------------6----------------------------|               
Ab|-0-------------------------4----------------------------|
Eb|--------------------------------------------------------|


eb|--------------------------------|
Bb|--------------------------------|
Gb|-6-6--6--6-6--4--8-8--8--8-8--8-| x a bunch
Db|--------------------------------|               
Ab|-4-4--4--4-4--2--6-6--6--6-6--6-|
Eb|-0-0--0--0-0--0--0-0--0--0-0--0-|

End on:
eb|------------------|
Bb|------------------|
Gb|-6-6--6--6-6--4---|    
Db|------------------|             
Ab|-4-4--4--4-4--2---|
Eb|-0-0--0--0-0--0---|


Suggest correction
Creating personal tab
Creating personal tab
You can edit any tab online and save it as your Personal.

You can edit, replace or remove any tab part or add personal notes – all changes will be seen only by you.

Personal tabs can be accessed anytime from any device, even offline.
Learn more »
Give kudos to tab author, rate the tab!
1 2 3 4 5
comments
print report bad tab
2 comments total.
0 reply
neutralmelkho 10 May 30, 2016 07:52 AM

5 stars. Could you possibly do two deliverances?

guest
You may want to rate the tab now too:
select rating
Wanna post a correction for this tab? Suggest correction