Oops, an error
Loading. Please wait.

Calm In The Chaos Tab

1,858 views 1 this week
1 commentread comment
1 2 3 4 5
2 more votes to show rating
add to favorites
launch autoscroll
font size
0
reset
how to read this tab
guitar tuner
Autoscroll
slow
fast
+/-
esc
set tempo
stop
Help us to improve Ultimate-Guitar.com Take our survey!
×
Author
Tuning
D A D G B E
-----------------------------------------------------------------------------
                        CALM IN THE CHAOS - The Human Abstract
-----------------------------------------------------------------------------
Tabbed by: Gannon2145

Tuning: Drop-D


Intro:
        Bm              D                    G                   Em
Come to save the world. What do you believe? What do you believe?

        Bm              D                    G                   Em
Come to save the world. What do you believe? What do you believe?

               Bm      A                 D      Em
So you've been chosen.    So you've been chosen.

               Bm      A                 Em
So you've been chosen.    So you've been chosen.



Slow, soft part:

e|---------------------------------------------------------|
B|---------------------------------------------------------|
G|-----4-----2-------3-2---------4-----2-------3-2-0-------|
D|---4---------2-5-4-----------4---------2-5-4-------------|
A|-2-----4-5-------------5-4-2-----4-5---------------5-4-2-|
D|---------------------------------------------------------|


Faster, dist. part: x4
e|-------------------------------------------------------:|
B|-------------------------------------------------------:|
G|-----4-----2-------3-2---------4-----2-------3-2-0-----:|
D|---4---------2-5-4-----------4---------2-5-4-----------:|
A|-2-----4-5-------------5-4-2-----4-5---------------5-4-:|
D|-------------------------------------------------------:| x4

e|----------------------------------------------------------------------2-|
B|----------------------------------------------------------------------3-|
G|----------------------------------------------------------------------4-|
D|---------------------------9-7-9-5-4-5--------------------------------4-|
A|-2-0-2-4-2-4-5-4-5-7-5-7-9-------------7-5-7-4-5-7-5-4--2--0----------2-|
D|--------------------------------------------------------------2---0---x-|

same chords as before during the chorus thing
then the guitar hits the Bm again every so often
the lead guitar plays this at one point:

e|-19----19--17----17--14----14--14--17--19--15~----------15~---------------|
B|--------------------------------------------------------------------------|
G|--------------------------------------------------------------------------|
D|--------------------------------------------------------------------------|
A|--------------------------------------------------------------------------|
D|--------------------------------------------------------------------------|

then the lead guitar comes in with a solo which might start something like this:

e|-19~-----19~-----19--17--15--14~----14h15p14----14-15-17-15-14----------
B|---------------------------------------------15----------------15-17~---
G|------------------------------------------------------------------------
D|------------------------------------------------------------------------
A|------------------------------------------------------------------------
D|------------------------------------------------------------------------

e|----14--------------------?????????????????????????????????????????????|
B|-17----17-15-14-(14)^16---?????????????????????????????????????????????|
G|--------------------------?????????????????????????????????????????????|
D|--------------------------?????????????????????????????????????????????|
A|--------------------------?????????????????????????????????????????????|
D|--------------------------?????????????????????????????????????????????|

the rest is all over the neck and i'm still trying to figure out,
but the rhythm guitar pretty much strums Bm and maybe some of the
other chords that are in the intro

|(y)^z  hit note y and quickly bend up to note z
| h     hammer-on
| p     pull-off
| ~     vibrato
=============================================================================
Suggest correction
Give kudos to tab author, rate the tab!
1 2 3 4 5
comments
print report bad tab
1 comment total.
0 reply
Gannon2145 31 Aug 21, 2009 09:54 PM

the last whole step bend in the solo should be on the G string, not the B string

guest
You may want to rate the tab now too:
select rating
Wanna post a correction for this tab? Suggest correction