Oops, an error
Loading. Please wait.

Channel Detritus Tab

version 1
version 1

Whole song

Interactive

1,981 views 1 this week
no commentswrite comment
1 2 3 4 5
please rate
add to favorites
launch autoscroll
font size
0
reset
how to read this tab
guitar tuner
Autoscroll
slow
fast
+/-
esc
set tempo
stop
Help us to improve Ultimate-Guitar.com Take our survey!
×
Contributor
Tabbed By: Middaysilence
The Human Abstract
"Channel Detritus"
from the album Nocturne

Tunning Drop C
Low to High
C G C F A D

ok, so i found a video on youtube of this guy playing it,
and i have been watching this video religiously,
trying to learn it.. i finally have it!!
heres the video http://www.youtube.com/watch?v=sWxFNCiVR1w
i added a few harmonies, and some of the acoustic outro

so, here it is.

Intro
ok, so i dont have the lead.
|------------------------------------------------------------------------------------------------|
|------------------------------------------------------------------------------------------------|
|------4--9--10------------11-------------12-----------------------------------------9-10-11-12--|
|6--1--4--9--9-------9-12--10------10-13--11--------11-14-------------------7-8-9-10-------------|
|6--1--2--7--8--8-11-------9--9-12--------10--10-13--------7-8-9-10-5-6-7-8----------------------|
|6--1--------------------------------------------------------------------------------------------|

|-------------------------|
|-------------------------|
|-------------------------|
|-000----------000--------|
|-000-/10-8-6--000-/865~~-|
|-000----------000--------|

riffI
|--------------|---------------------|--------------|------------------|---------------|
|--------------|---------------------|--------------|------------------|---------------|
|--------------|---------------------|--------------|------------------|---------------|
|--------------|---------------------|--------------|------------------|---------------|
|-66666-666-666|6-/10-8-6--5--8-6-5--|--------------|---------3--5-3-2-|-88888-8888-888|
|--------------|-----------5---------|66666-6666-666|6-3-5-6--3--------|---------------|

|-------------------|
|-------------------|
|-------------------|
|---3-5-6-----5-6-8-|
|-8---------5-------|
|-----------5-------|

|-------------------|-------------------|-------------------|-------------------|
|-------------------|-------------------|-------------------|-------------------|
|-------------------|-------------------|-------------------|-------------------|
|---------------3-5-|---------------5-6-|---------------6-8-|-----------1p0-----|2x
|-22222-22--6-5-----|-22222-22--6-5-----|-33333-33--6-5-----|-22222-22-----<2>--|
|-------------------|-------------------|-33333-33----------|-------------------|

riffII
                       1,3                         2                         4
|-------------------------|-------------------------|-------------------------|
|-------------------------|-------------------------|-------------------------|
|-------------------------|-------------------------|------------------8------|
|-1111-1111-1111--1-5-3-5-|-0000-0000-0000--0-3-1-0-|-3333-3-6-5-6-------6-5-6|
|-3333-3333-3333----------|-2222-2222-2222----------|-5555---------2222-------|
|-------------------------|-------------------------|--------------5555-------|

riffIII
|-------------------------------------------------------|
|-------------------------------------------------------|
|-------------------------------------------------------|
|-00-----------00----------0--1/5~~--00--5-6-----00-----|2x
|-00--3-6-5~~--00--6p5p3/2-0---------00------8~~-00-3-2-|
|-00-----------00----------0---------00----------00-----|


riff IV
|-----------------------|
|-----------------------|2 times behind lead
|-----------------------|figure out pattern
|-5555555555--66666666--|
|-5555555555--66666666--|
|-5555555555--66666666--|

gtr 1
|--------------------------------------------------------------------------------------------|
|--------------------------------------------------------------------------------------------|
|----8-10-12--12---10------8-10-12---10--8------10-12-13----13---12-----10-12-13----12--10---|
|--------------------------------------------------------------------------------------------|2x
|-10--------10---10-----10---------10--10----11----------11----11----11----------11----11----|
|--------------------------------------------------------------------------------------------|

gtr 2
|-------------------------------------------------------------------------------|
|-------------------------------------------------------------------------------|
|----5-6-8---8---6------5-6-8---6--5------6-8-10----10---8-----6-8-10----8--6---|
|--5-------5---5-----5--------5--5------6---------6----6-----6---------6---6----|2x
|-------------------------------------------------------------------------------|
|-------------------------------------------------------------------------------|

riff V
|-----------|
|-----------|
|-----------|next rhythm
|-5-6-3-8-6-|again, figure out pattern
|-5-6-3-8-6-|
|-5-6-3-8-6-|

gtr 1
|-----------|-------------|-------------|--------------------------|
|-----------|-------------|-------------|--------------------------|
|---8-10-12-|----10-12-13-|----12-13-15-|----17-15-13-----15-13-12-|
|-8---------|-10----------|-12----------|-13-----------12----------|2x
|-----------|-------------|-------------|--------------------------|
|-----------|-------------|-------------|--------------------------|
gtr 2
|---------|----------|-----------|-------------------------|
|---------|----------|-----------|-------------------------|
|---5-6-8-|---6-8-10-|---8-10-12-|----13-12-10-----12-10-8-|
|-5-------|-6--------|-8---------|-10-----------8----------|2x
|---------|----------|-----------|-------------------------|
|---------|----------|-----------|-------------------------|

riff VI
|-----8\7-10/11\10--8h10p8/7--6h8p6-----------10/11-|
|----8------------------------------9--8-9-11-------|
|---8-----------------------------------------------|
|-10------------------------------------------------|
|---------------------------------------------------|
|---------------------------------------------------|

|-------11\10--11-13-11--10h11p10-----------------------------|
|-----11---------------------------/13-11---------------------|
|---12------------------------------------13-12-13--8h10p8h10-|
|-13----------------------------------------------------------|
|-------------------------------------------------------------|
|-------------------------------------------------------------|

|-------13-15-16-13--11h13p11---------------------------|
|-----13----------------------15--13-15-16--------15-16-|
|---14--------------------------------------15-17-------|
|-15----------------------------------------------------|
|-------------------------------------------------------|
|-------------------------------------------------------|

|-/18-16-15-16~~--/13-11-13-11/10--13-8-13----13----|
|------------------------------------------11-------|
|---------------------------------------------------|
|---------------------------------------------------|2x
|---------------------------------------------------|
|---------------------------------------------------|

riff VI
|-8--11--7--11---11---11--11--11---11-|-7--10---10---10--10---10-----10-|
|--------------9----8----6------------|-------9----8---6----------------|
|----------------------------8----7---|---------------------8---7-------|
|-------------------------------------|----------------------------10---|
|-------------------------------------|---------------------------------|
|-------------------------------------|---------------------------------|

|---8---8----8----8---8----8---8--|---------------------------------------|
|-9---8----6----------------------|---------------------------------------|
|---------------8---7-------------|-000-----000------000-------12-9-------| 2x
|-----------------------10---9----|-000-6-8-000-8-10-000-10-11------11-8--| 
|---------------------------------|-000-----000------000------------------| 
|-------------------------------------------------------------------------|
eek, i fucked up, this is supposed to
be on the bottom C string >.<
prog part
|----------|-------------|-------------------------------|------------------------|-------------|
|----------|-------------|-------------------------------|------------------------|-------------|
|----------|-------------|----7-8----8-7---10-----8------|-555-4-5-5-7-5--4-5-7-5-|-----10-8-7--|
|-11111-1--|-5-3-6-5-3-5-|-------------------------------|------------------------|-6-6---------|
|-33333-3--|-------------|-88-----88----88---11-11--888--|------------------------|-------------|
|----------|-------------|-------------------------------|------------------------|-------------|


|-------------------------|---------|
|-------------------------|---------|
|-------5------3-------1--|---------|
|-6-666---5-555--3-333----|-1-3-5-6-|
|-------------------------|---------|
|-------------------------|---------|
riff VIII
|---------|---------|---------|---------|---------|---------|
|---------|---------|---------|---------|---------|---------|
|---------|---------|---------|---------|---------|---------|
|-------5-|-3-5-3-1-|-------3-|-0-3-5-6-|-------1-|---------|
|---------|---------|---------|---------|---------|-3-6-5-3-|
|-66666---|---------|-55555---|---------|-33333---|---------|


|--------------------------------------------|-----------------|
|--------------------------------------------|-----------------|
|--8-12-15-12-8-12-15--7-10-13-10-7-10-13-10-|-----------------|
|--------------------------------------------|--------------3--|2x
|--------------------------------------------|------------5----|
|--------------------------------------------|-000000-0h6------|


riff IX
|---------|---------|----------|
|---------|---------|----------|
|---------|---------|--------7-| ????
|---3-5-6-|-----3-5-|---9-10---| im not sure
|-3-------|-2-5-----|-8--------| of the part with the harmonics
|---------|---------|----------|


chord part
|--------------------|
|--------------------|
|-----7-------7---4--|
|-1---5---10--6---3--|
|-3---3---8---3---5--|
|-5---3---6---3---5--|

acoustic chords
|---------|
|-4-3-1-3-|
|-5-4-1-4-|
|-5-5-3-5-|
|-3-5-3-5-|
|---------|

acoustic lead
|--------------|---------------------------|---------------|--------------|
|----8----8-9--|-8h9p8-------8h9p8----8----|---------------|--------------|
|-10---10------|-------10-8--------10----5-|-5-6-5--5h6----|-6--6h8--5--6-|
|--------------|---------------------------|-------------8-|--------------|
|--------------|---------------------------|---------------|--------------|
|--------------|---------------------------|---------------|--------------|
comments
We did not receive enough feedback on this tab! Please rate:
print report bad tab
1 2 3 4 5
I want to post or [tab]
guest
You may want to rate the tab now too:
select rating
Please do not post tabs as comments. Select "correction" instead!