Oops, an error
Loading. Please wait.

Complex Terms Tab

version 1
version 1

Intro

Interactive

1,359 views 1 this week
no commentswrite comment
1 2 3 4 5
please rate
add to favorites
launch autoscroll
font size
0
reset
how to read this tab
guitar tuner
Tab Pro tools
  • play this tab
  • loop segment
  • change instrument
  • show fretboard
  • metronome
×
Best way to learn
"Complex Terms"
Autoscroll
slow
fast
+/-
esc
set tempo
stop
Contributor
Difficulty
Tuning
advanced
D A D G B E
I'm pretty sure the song is actually played lower, like Drop C for example, but Drop D 
makes the intro really easy.

Guitar 2                          Guitar 1
E|------------|                   E|-----------5-7-8-|
G|------------|                   B|-------5-6-------|
B|------------|                   G|---4-5-----------|
D|-7~~~~~~~---|                   D|-7---------------|
A|-7~~~~~~~---|                   A|-----------------|
D|-7~~~~~~~---|                   D|-----------------|

Both Guitars
|------------------|--------------|------------------|------------------|
|------------------|--------------|------------------|------------------|
|------------------|--------------|------------------|------------------|
|---7--------------|-7------------|-7--------------7-|------------------|
|-----8---7--------|---8---7------|---8---7----------|-8---7------------|
|-7-----7---10-9-7-|-----7---10-7-|-----7---10-9-7---|---7---10-9-7-6-2-|

|-----------------|---------------------|-----------------|-----------------|
|-----------------|---------------------|-----------------|-----------------|
|-----------------|---------------------|-----------------|-----------------|
|---2-------------|-2-------------------|---2-------------|-2-------------2-|
|-----3---2-0-----|-------3-----2-0-----|-----3---2-0-----|---------0-2-3---|
|-3-----3-----3-2-|-----3-----3-----3-2-|-3-----3-----3-2-|---0-2-3---------|

Repeat that once (I tried separating the measures where I though it sounded right. Damn 
you, Abstract, and your time changes!)

|------------------|--------------|------------------|---------------|
|------------------|--------------|------------------|---------------|*
|------------------|--------------|------------------|---------------|Last
|---7--------------|-7------------|-7--------------7-|---------------|Measure
|-----8---7--------|---8---7------|---8---7----------|-8---7---------|Changes
|-7-----7---10-9-7-|-----7---10-7-|-----7---10-9-7---|---7---10-9----|

|--------------------|---------------|------------------|----------------|
|--------------------|---------------|------------------|----------------|
|--------------------|---------------|------------------|----------------|
|----9-7-------------|-9-7-----------|---9-7------------|-9-7------------|
|-----------8-7------|--------8-7----|---------8-7------|----------8-7-8-|
|-10-----10-----10-9-|-----10-----10-|-9-----9-----10-9-|-----9-10-------|

|-----------------|-------------|-----------------|-------------------|
|-----------------|-------------|-----------------|-------------------|
|-----------------|-------------|-----------------|-------------------|
|---2-------------|-2-----------|-2-------------2-|-------------------|
|-----3---2-0-----|---3---2-0---|---3---2-0-------|-3---2-0-----0---2-|
|-2-----2-----3-2-|-----2-----2-|-----2-----3-2---|---2-----3-----3---|

|---Fast-Part-----|
|-----------------|
|-9------7------7-|        Repeat the First Riff.
|---10-9---10-9---|        Now, things get tricky...
|-----------------|        * = Palm Mute
|-----------------|

Guitar 1
|---------------------------------|-----------------------------|
|---------------------------------|-----------------------------|
|---------------------------------|-----------------------------|
|-----7p3-------------------------|-----7p3---------------------|
|---------7p3-----7p3-7p3---------|---------7p3-----7-8-7-------|
|-----------------------------9-7-|-6-7-------------------10-9--|

Guitar 2
|---------------------------------|-----------------------------|
|---------------------------------|-----------------------------|
|---------------------------------|-----------------------------|
|-2-2---------2-2---------2-2-----|-2-2---------2-2----------2--|
|-0-0---------0-0---------0-0-----|-0-0---------0-0----------0--|
|---------------------------------|-----------------------------|
  * *         * *         * *       * *         * *          *

Guitar 1
|--------------12---------------12-13-------|
|-----10-12-13---------10-12-13-------10-12-|
|-------------------------------------------|
|-------------------------------------------|
|-------------------------------------------|
|-------------------------------------------|

Guitar 2
|--------------------------------------------|
|--------------------------------------------|
|--------------------------------------------|
|-2-2--------------2-2-------------2-2-------|
|-0-0--------------0-0-------------0-0-------|
|--------------------------------------------|
  * *              * *             * *


Guitar 1
|-13-12----------12------------------------------|
|-------13-12-10----13-12-10----13-12-10------13-|
|----------------------------10----------10-9----|
|------------------------------------------------|
|------------------------------------------------|
|------------------------------------------------|

Guitar 2
|------------------------------------------------|
|------------------------------------------------|
|------------------------------------------------|
|-2-2---------------2-2---------------4-4--------|
|-0-0---------------0-0---------------2-2--------|
|------------------------------------------------|
  * *               * *               * *


Guitar 1
|---------------------------------------|
|---------------------------------------|
|------10-9----------9------------------|
|-----------10-9-------10-9--------9-12-|
|---------------------------12----------|
|---------------------------------------|

Guitar 2
|---------------------------------------|
|---------------------------------------|
|---------------------------------------|
|---------------------------------------|
|-2-2------------2-2-----------2-2------|
|-2-2------------2-2-----------2-2------|
  * *            * *           * *


Guitar 1
|--------------------------------------|
|------------------------10-12-13------|
|-------------------9-10---------------|
|------------7-9-10--------------------|
|--------7-8---------------------------|
|-7-9-10-------------------------------|

Guitar 2
|--------------------------------------|
|--------------------------------------|       Repeat all of that jazz until
|--------------------------------------|       the last measure
|--------------------------------------|
|-2-2----------2-2-------------2-2-0h2-|
|-2-2----------2-2-------------2-2-----|
  * *          * *             * *
First guitar stays the same, but the second goes:
|--------------------------------------|
|--------------------------------------|
|--------------------------------------|
|--------------------------------------|
|-----2-2------------2-2---------------|
|-----2-2------------2-2---------------|
      * *            * *


Both guitars
|---------------------------------|-----------------------------------------|
|---------------------------------|-----------------------------------------|
|---------------------------------|-----------------------------------------|
|---------------------------------|-----------------------------------------|
|-0-0-7---8---0-0-7---5---0-0-3---|---0-0-2---0-0-2---0---2---3-------------|
|---------------------------------|-------------------------------2---6---9-|
  * *         * *         * *         * *     * *

Super sexy arpeggios
Guitar 1
|----------------------------|-12-8-------------------------8-12------|
|----------------------------|------10-------------------10-----------|
|----------------------------|---------9---------------9--------------|
|----------------------------|-----------10---------10----------------|
|----------------------------|--------------12-7-12-------------------|
|----------------------------|----------------------------------------|

Guitar 2
|----------------------------|----------------------------------------|
|----------------------------|----------------------------------------|
|----------------------------|----------------------------------------|
|-7-7-7-7-7-7-7-7-7----------|----------------------------------------|
|-7-7-7-7-7-7-7-7-7----------|----------------------------------------|
|-7-7-7-7-7-7-7-7-7----------|----------------------------------------|
  * * * * * * * *

Guitar 1
|----------------------------|-13-8---------------------------8-13----|
|----------------------------|------10---------------------10---------|
|----------------------------|---------10---------------10------------|
|----------------------------|------------10---------10---------------|
|----------------------------|---------------12-8-12------------------|
|----------------------------|----------------------------------------|

Guitar 2
|----------------------------|----------------------------------------|
|----------------------------|----------------------------------------|
|----------------------------|----------------------------------------|
|-3-3-3-3-3-3-3-3-3----------|----------------------------------------|
|-3-3-3-3-3-3-3-3-3----------|----------------------------------------|
|-3-3-3-3-3-3-3-3-3----------|----------------------------------------|
  * * * * * * * *


Guitar 1
|----------------------------|-13-10----------------------------10-13-|
|----------------------------|-------11----------------------11-------|
|----------------------------|----------10----------------10----------|
|----------------------------|-------------12----------12-------------|
|----------------------------|----------------13-10-13----------------|
|----------------------------|----------------------------------------|

Guitar 2
|----------------------------|----------------------------------------|
|----------------------------|----------------------------------------|
|----------------------------|----------------------------------------|
|-0-0-0-0-0-0-0-0-0----------|----------------------------------------|
|-0-0-0-0-0-0-0-0-0----------|----------------------------------------|
|-0-0-0-0-0-0-0-0-0----------|----------------------------------------|
  * * * * * * * *

I don't have guitar 1 figured out yet

Guitar 2
|---------------------------------------|
|---------------------------------------|
|---------------------------------------|
|-2-2-2-2-2-2-2-2-2---1---2---3---2-----|
|-2-2-2-2-2-2-2-2-2---1---2---3---2-----|
|-2-2-2-2-2-2-2-2-2---1---2---3---2-----|
  * * * * * * * *


Both guitars
|-------------------------------|-------------------------------|
|-------------------------------|-------------------------------|
|-------------------------------|-------------------------------|
|-------------------------------|-------------------------0-2-3-|
|---0---3---7---8---4---5-------|-------------------------0-2-3-|
|---------------------------6---|-7---2---3---0---0-------0-2-3-|
                                              *
*This note is a problem because it is a Db, which is unplayable in Drop D.  That's why I 
think the song is in Drop C instead.

|-------------------|
|-------------------|
|-------------------|
|-2----2-1-2-3-2----|
|-2----2-1-2-3-2----|
|-2----2-1-2-3-2----|

That's pretty much all I got.  Leave comments on how it sounds and make suggestions.  
I'll have the whole song later.
comments
We did not receive enough feedback on this tab! Please rate:
print report bad tab
1 2 3 4 5
I want to post or [tab]
guest
You may want to rate the tab now too:
select rating
Please do not post tabs as comments. Select "correction" instead!