Oops, an error
Loading. Please wait.

Crossing The Rubicon Bass Tab

version 1
version 1

Whole song

Interactive

1,731 views 1 this week
no commentswrite comment
1 2 3 4 5
please rate
add to favorites
launch autoscroll
font size
0
reset
guitar tuner
Autoscroll
slow
fast
+/-
esc
set tempo
stop
Help us to improve Ultimate-Guitar.com Take our survey!
×
Difficulty
novice
Crossing the Rubicon
The Human Abstract
Drop C or D
this is my first tab by ear i may have put things in here to make more fun to play and 
breakdowns really cool. I ll Post correction eventually
Intro
|-----------------------------------------------------------------------|
|-----------------------------------------------------------------------|
|-----------------------------------------------------------------------|
|--1010-99--77-66----88-77--55-44---66-55--33-22---44-33--11-00---------|

Fill
|-----------------------------------------------------------------------|
|-----------------------------------------------------------------------|
|-----7--6--7//---------------------------------------------------------|
|--00--0--0-------------------------------------------------------------|

Verse you can play this on the c string but i like this better
|-----------------------------------------------------------------------|
|-----------------------------------------------------------------------|
|----99-77-99----77-55-77----55-44-55-----5h7----7h9---6h8--5h7---------|
|-00----------00----------00-----------00-----0------0------------------|

I guess you could call this a fill
|-----------------------------------------------------------------------|
|-----------------------------------------------------------------------|
|-----------------------------------------------------------------------|
|--000--0555--5777-777-999-10-10-10-------------------------------------|
			Tremo pick the 9 and 10

|-----------------------------------------------------------------------|
|-----------------------------------------------------------------------|
|-----------------------------------------------------------------------|
|--000--0555-5777--777-999-10/15-Tremo pick-----------------------------|

Chorusx2
|-----------------------------------------------------------------------|
|-----------------------------------------------------------------------|
|-----------------------------------------------------------------------|
|--555-00000-555-0000000-777-00000-777-0000000--------------------------|

|-----------------------------------------------------------------------|
|-----------------------------------------------------------------------|
|-----------------------------------------------------------------------|
|--999-00000-999-000000--888-00000-888-000000---------------------------|

|-----------------------------------------------------------------------|
|-----------------------------------------------------------------------|
|-----------------------------------------------------------------------|
|--5--7-8--10-----------------------------------------------------------|

Play the verse again
|-----------------------------------------------------------------------|
|-----------------------------------------------------------------------|
|-----------------------------------------------------------------------|
|-----------------------------------------------------------------------|

Fillx2							   Tremo pick thes notes
|---------------------/-------------------/---------------/----------------|
|---------------------/-------------------/---------------/----------------|
|---------------------/-------------------/---------------/----------------|
|--5555-8888-7777-4444/4444-7777-6666-4444/-6666-9999-8888/-5-8-7----------|

Just Play 5 in the rythm they do i dont feel like tabing it
|-----------------------------------------------------------------------|
|-----------------------------------------------------------------------|
|-----------------------------------------------------------------------|
|--5555-5555------------------------------------------------------------|

Chorusx2
|-----------------------------------------------------------------------|
|-----------------------------------------------------------------------|
|-----------------------------------------------------------------------|
|-----------------------------------------------------------------------|

Fill
|-----------------------------------------------------------------------|
|-----------------------------------------------------------------------|
|-----------------------------------------------------------------------|
|-55555-77777-88888-99999-10-10-10-10-10--------------------------------|

|-----------------------------------------------------------------------|
|-----------------------------------------------------------------------|
|-----------------------------------------------------------------------|
|--5-00-5-00-00-4-00-4-00-7-00-7-00-9-00-10-----------------------------|

Breakdown Bass takes alot of rest so im just going to put the riffs you can figure it out
|-----------------------------------------------------------------------|
|-------7-7-7-----------------------------------------------------------|
|------------7-7-7--5-5-5--2-2-2----------------------------------------|
|-----------------------------------------------------------------------|

|--------------------------7---------------------------------------------|
|----------7-----------7h9-----------------------------------------------|
|------7h9---------------------------------------------------------------|
|--0-0------------0-0----------------------------------------------------|

|----------------7---------7---7-9-10-----------------------------------|
|-------7----7-9-------7-9---9------------------------------------------|
|--7-9----9-------------------------------------------------------------|
|-----------------------------------------------------------------------|

|-----------------------------------------------------------------------|
|---7-7-7---------------------------------------------------------------|
|----------9-9-9--5-5-5--2-2-2------------------------------------------|
|-----------------------------------------------------------------------|

|-----------------------------------------------------------------------|
|-------------------------------------7-7-------------------------------|
|--2-2--5-5--5-5--7-7--7-7--9-9--9-9------------------------------------|
|-----------------------------------------------------------------------|

|--------------------------------------------------------------------------------|
|---7-7--------------------------------------------------------------------------|
|-------9-9-7-7-5-5-2-2----------------------------------------------------------|
|--------------------------------------------------------------------------------|

|-----------------------------------------------------------------------------|
|-----------------------------------------------------------------------------|
|-----------------------------------------------------------------------------|
|--0--0-0-0--0----------------------------------------------------------------|
That was fun

Undistorted part 3:50
do what you want
|-----------------------------------------------------------------------|
|-----------------------------------------------------------------------|
|-----------------------------------------------------------------------|
|-----------------------------------------------------------------------|

Outro needs work its very hard to make out
|----------------------------------/-------------------------------------|
|----------------------------------/-------------------------------------|
|----------------------------------/-------------------------------------|
|--10-10--0-0--0-0-0--10-10--0-0-0-/-9-9-0-0--0-0-0--9-9--0-0-0----------|

|-------------------------------------------------------------------------|
|-------------------------------------------------------------------------|
|-------------------------------------------------------------------------|
|--7-7--0-0--0-0-0--7-7-0-0-0-----5-5-0-0--0-0-0--5-5-0-0-0---------------|

x2	   build up
|-----------------------------------------------------------------------|
|-----------------------------------------------------------------------|
|-----------------------------------------------------------------------|
|---12/0---0-0-0-0-0-0--------------------------------------------------|

|-----------------------------------------------------------------------|
|--9~-------------------------------------------------------------------|
|-----------------------------------------------------------------------|
|-----------------------------------------------------------------------|
Suggest correction new What's this?
You can suggest a correction to this tab. Community and Mods will review your correction and vote to approve or reject it.
comments
We did not receive enough feedback on this tab! Please rate:
print report bad tab
1 2 3 4 5
guest
You may want to rate the tab now too:
select rating
Please do not post tabs as comments. Select "correction" instead!