Oops, an error
Loading. Please wait.

Desiderata Bass Tab

version 1
version 1

Whole song

Interactive

966 views 3 this week
no commentswrite comment
1 2 3 4 5
worth learning
x 2
add to favorites
launch autoscroll
font size
0
reset
guitar tuner
Tab Pro tools
  • play this tab
  • loop segment
  • change instrument
  • show fretboard
  • metronome
Autoscroll
slow
fast
+/-
esc
set tempo
stop
Contributor
-------------------------------------------------------------------------------
			     Desiderata - The Human Abstract
-------------------------------------------------------------------------------
Tabbed By: Valerie L
e-mail: iloled@yahoo.com
Tuning: Drop C

it's an instrumental song

Part A
F|----------------------------------------------------------|
C|----------------------------------------------------------|
G|5~---------------4~-----------5~---------------57-000000--|
C|---7-5-00000--35---7-5-000000----7~-8~-7~-55555-----------| x2

Part B
F|-----------------------------------------------------------------------|
C|-----------------------------------------------------------------------|
G|5-555-5-5-------------4-444-4-4-----------4~------875-------57-00000000|
C|----------7-5-00000-------------7-5-000000---7~-8~---55555-5-----------| x2

Part A x1

Part C
F|---------------------------------------------------------|
C|---------------------------------------------------------|
G|5~---------------4~-----------4~-----54----------57-0000-|
C|---7-5-00000--35---7-5-000000----7~-5---35-55555---------| 

Part D (1:20)
F|---------------------|
C|---------------------|   
G|---------------------|  
C|0~--7~--6~--3~--2~---|x2

Part E (1:42)
F|----------------------------------|
C|-----7------------------2---------|
G|---7---7--------------2---2-------|
C|7~-------0~-9~-5-4--2~------3~-2~-| x2

Part D x1

Part F (2:14)
F|------------------------12~/8------------------------|
C|---7~-6~-10~-9~-----12~---------------------6~-7~----|
G|5~--------------10~-----------12~-11~-8~-7~-------6~-|
C|-----------------------------------------------------| x2

Part G (2:45)
play this until piano
F|------------------------|
C|------------8--8--7--7--|
G|5--5--5--5--------------|
C|------------------------| 

If you want to you can play along with the guitar and the piano:
F|--------------------------|
C|-------7-753--------------|
G|5-5-78-------5--5-78------|
C|---------------------7-7--| 

piano part on bass: (3:27)
F|--------------------------|
C|-------7-753--------------|
G|5-5-78-------5--5-78------|
C|---------------------7-7--| 

F|-------------3/5-320----32---|
C|-------7-753--------023----2-|
G|5-5-78-----------------------|
C|-----------------------------| 
comments
We did not receive enough feedback on this tab! Please rate:
print report bad tab
1 2 3 4 5
I want to post or [tab]
guest
You may want to rate the tab now too:
select rating
Please do not post tabs as comments. Select "correction" instead!