Oops, an error
Loading. Please wait.

Elegiac Tab

version 1
version 1

Whole song

Interactive

10,084 views 12 this week
1 commentread comment
1 2 3 4 5
please rate
add to favorites
launch autoscroll
font size
0
reset
how to read this tab
guitar tuner
Tab Pro tools
  • play this tab
  • loop segment
  • change instrument
  • show fretboard
  • metronome
×
Best way to learn
"Elegiac"
Autoscroll
slow
fast
+/-
esc
set tempo
stop
Contributor
Tuning
D A D G B E
-----------------------------------------------------------------------------
                             Elegiac – The Human Abstract
-----------------------------------------------------------------------------
Tabbed by: Nick Rogers
This is a great song with a classical feel. I did my best on this tab but I know it's 
not 100% (got a little lazy on some parts but if you have an ear at all you can figure it 
out). Corrections are welcome. Have fun playing!

Tuning: Drop D

Guitar 1
e|--------------6-6-5--5---------------6-6-5-55---------5-5-8-6-------6-5-5-|
B|--6-6-6-5-5-8-------5-5-8-6-6-6-6-5-8------------------------8h10h11---5-5|
G|--------------------------------------------------------------------------|
D|---------------------------------------------7h8p7p5h7--------------------|
A|--------------------------------------------------------------------------|
D|--------------------------------------------------------------------------|

e|------5-10-10-8-8-6-6-5-----------5-------------6-------6--5--5-----------|
B|8-6-6-------------------8-6-5-6-8---6-6h8p6p5h6--8h10h11-----5-5-8-6-5-6--|
G|-------------------------------------------------------------------------7|
D|--------------------------------------------------------------------------|
A|--------------------------------------------------------------------------|
D|--------------------------------------------------------------------------|

Guitar 2
e|--------------------------------------------------------------------------|
B|--------------------------------------------3-------------------1---------|
G|--------------3---3-----------0---------0---2-------2---------------------|
D|--------------5-5---5-5-2-----2---------2---3-3---3---3-------2-----------|
A|--------------------------5-4---4-0-1-0---0-5---5-------5-3-3-----3-------|
D|--0-0-0-3-2-3-5-----------------------------------------------------------|

e|--------------------------------------------------------------------------|
B|--------------------------------------------------------------------------|
G|------0----------2---0---3---2---0-----------2---------------2------------|
D|----2-------3------------------------4-----4---4---4-4-----4---4---4------|
A|--1--------3-3-3---3---3---3---3---3---3---------3-----3---------3--------|
D|--------5-3---3--------------------------4---------------4----------------|

e|---------3---3---------------------------------------------3--------------|
B|--------3---3----------------------3-----------3-------1-----1------------|
G|----3------3---3-3-3-----------0---2-------2---2-----0---0-------0--------|
D|---5-5-5--3---2-0--2-2---------2---3-3---3---3-3---2-----------2----------|
A|-------------------4---4-0-1-0---0-5---5---------5------------------------|
D|--5---5-------------------------------------------------------------------|

e|---------1-------0---1-----------------------------3----3---3-------------|
B|----1---1---2---2---3----------------------------------3---3--------------|
G|---2-2-2---2-2-2---2------2-------2---------------3---3---3-----3---3-----|
D|--3---3---2---2---0---0-3---3---3---3---3---3----5---5---3----2---0-------|
A|------------------------------3-------3---1---0---------------------------|
D|------------------------------------------------5-------------------------|

e|--------------------------------------------------------------------------|
B|--5---------------3-------------------------------------------------------|
G|--3-----------0---2-------------------------------------------------------|
D|--2-2---------2---3-------------------------------------------------------|
A|--4---4-0-1-0---0-0-------------------------------------------------------|
D|--------------------------------------------------------------------------|

************************************

| /   slide up
| \   slide down
| h   hammer-on
| p   pull-off
| ~   vibrato
| +   harmonic
| x   Mute note
| b   Bend

************************************
comments
We did not receive enough feedback on this tab! Please rate:
print report bad tab
1 2 3 4 5
1 comment total.
0 reply
FinderofNemo wrote on September 6 2014, 01:01 am, edited at 01:02 am

Why not play 3h5h6 on the e string instead of 8h10h11 on the b string? Going up the fret board is unnecessary since you go back down to the same note anyway in your tab

I want to post or [tab]
guest
You may want to rate the tab now too:
select rating
Please do not post tabs as comments. Select "correction" instead!