Oops, an error
Loading. Please wait.

Harbinger Tab

version 1
version 1

Intro

Whole song

Interactive

3,948 views 1 this week
1 commentread comment
1 2 3 4 5
1 last vote to show rating
add to favorites
launch autoscroll
font size
0
reset
how to read this tab
guitar tuner
Autoscroll
slow
fast
+/-
esc
set tempo
stop
Help us to improve Ultimate-Guitar.com Take our survey!
×
Author
----------------------------------------------------------------------------
                             HARBINGER (INTRO) - Human Abstract
----------------------------------------------------------------------------
Tabbed by: GoodApolloIV
Tuning:Standard

e|----------------6-8-634--634---------------------------------------------|
B|-----------------------------6-4-64-----------------------------\6-4---4-|
G|-5-56-66\8-6-5---------------------65--56565-5-----------------------6---|
D|-------------------------------------86-----8--866----------124----------|
A|----------------------------------------------------\4-3-023-------------|
E|-------------------------------------------------------------------------|

e|---------------------------------|
B|-64--4---------------------------|
G|---6--6--------------------------|
D|--------686-------1-2-535-\3~~---|
A|-----------846-3-4---------------|
E|---------------------------------|

Suggest correction
Give kudos to tab author, rate the tab!
1 2 3 4 5
comments
print report bad tab
1 comment total.
0 reply
Rylaxit 787 Jun 22, 2010 07:58 AM

Well, in standard it would be sumed like...

e|---------------------6--8---6-------|
B|------6--6-6s8--6-------------8-9---|
G|-5--5-------------8-----------------|
D|------------------------------------|
A|------------------------------------|
E|------------------------------------|

e|------------------------------------------------------|
B|-11-9-8---6------6-----------------2-1-2-1---1---1----|
G|-------------8----8-6-5-3h5p3s1--3---------3---3---1--|
D|------------------------------------------------------|
A|------------------------------------------------------|
E|------------------------------------------------------|

e|---------------------------2s4-----------------------|
B|-------------------------------4--6--4~----6--4--2---|
G|---------------------5--7----------------------------|
D|-----------4---4--7----------------------------------|
A|-5-----4-----6---------------------------------------|
E|-----------------------------------------------------|

e|---------------------------------------------------|
B|-4-2-----------------------------------------------|
G|---------------------------------------------------|
D|------5--8--5----------------------5--3--5-5s7~----|
A|--------------7--4--7--3--4--6--7------------------|
E|---------------------------------------------------|

-Rylaxit

guest
You may want to rate the tab now too:
select rating
Wanna post a correction for this tab? Suggest correction