Oops, an error
Loading. Please wait.

Mea Culpa Tab

version 1
version 1

Solo

Interactive

21,702 views 9 this week
8 commentsread comments
1 2 3 4 5
x 4
add to favorites
launch autoscroll
font size
0
reset
how to read this tab
guitar tuner
Autoscroll
slow
fast
+/-
esc
set tempo
stop
Help us to improve Ultimate-Guitar.com Take our survey!
×
Author
Artist: The Human Abstract
Song: Mea Culpa
Album: Nocturne 
Tuning (Low to High): D G C F A d


This is the solo starting from 1:52 through the end. I saw someone say the GuitarPro was 
little off with the ending arpeggios, a few were an octave off. So this tab is for both 
without GuitarPro or people with it who don't want to fix up the octaves. ENJOY AND GOOD LUCK!

~ Ring
^ Bend
h Hammer on
p Pull Off

d|-------------------------------------------16-17-19-21^-19--17--16---------|
A|----------------------------------15-17-19---------------------------------|
F|--14~~-13--11------------14-16-18------------------------------------------|
C|----------------14-16-18---------------------------------------------------|
G|---------------------------------------------------------------------------|
D|---------------------------------------------------------------------------|

d|--17-16-14-16---14h16p14----14------------------------17-16h17p17-14-12-9~-|
A|-------------------------17----17-15-14--51-17-19-17-----------------------|
F|---------------------------------------------------------------------------|
C|---------------------------------------------------------------------------|
G|---------------------------------------------------------------------------|
D|---------------------------------------------------------------------------|

d|--10~-10-9-7---------------------------------------------------------------|
A|-------------10-9-7-9-7-5-7-6-4-6~--9~--7-6--------------------------------|
F|--------------------------------------------9-7----------------------------|
C|---------------------------------------------------------------------------|
G|---------------------------------------------------------------------------|
D|---------------------------------------------------------------------------|

d|-------------------------------------------16-17-19-21^-19--17--16---------|
A|----------------------------------15-17-19---------------------------------|
F|--14~~-13--11------------14-16-18------------------------------------------|
C|----------------14-16-18---------------------------------------------------|
G|---------------------------------------------------------------------------|
D|---------------------------------------------------------------------------|

d|--17-16-14-16---14h16p14----14------------------------17-16h17p17-14-12-9~-|
A|-------------------------17----17-15-14--51-17-19-17-----------------------|
F|---------------------------------------------------------------------------|
C|---------------------------------------------------------------------------|
G|---------------------------------------------------------------------------|
D|---------------------------------------------------------------------------|

d|--10~-10-9-7---------------------------------------------------------------|
A|-------------10-9-7-9-7-5-7-6-4-6~--9~--7-6--------------------------------|
F|--------------------------------------------9-7----------------------------|
C|---------------------------------------------------------------------------|
G|---------------------------------------------------------------------------|
D|---------------------------------------------------------------------------|

d|--17-12----------12-17-12---------------------------12-17-12----------12---|
A|--------14----14----------14---------------------14----------14----14------|
F|-----------14----------------14---------------14----------------14---------|
C|--------------------------------14---------14------------------------------|
G|-----------------------------------16-12-16--------------------------------|
D|---------------------------------------------------------------------------|

d|--19-16----------16-19-16----------16-19-16----------------------------16--|
A|--------17----17----------17----17----------17----------------------17-----|
F|-----------16----------------16----------------16----------------18--------|
C|--------------------------------------------------18----------18-----------|
G|-----------------------------------------------------19-16-19--------------|
D|---------------------------------------------------------------------------|

d|--14-9---------------------------9-14-9---------------------------9--------|
A|-------10---------------------10--------10---------------------10----------|
F|----------11---------------11--------------11---------------11-------------|
C|-------------11---------11--------------------11---------11----------------|
G|----------------12-9-12--------------------------12-9-12-------------------|
D|---------------------------------------------------------------------------|

d|--14-9----------------------------------------------10---------------------|
A|-------10----------------------------------10-12-14----14-12-10-------14~--|
F|----------11-----------------------9-11-13----------------------13-11------|
C|-------------11------------9-11-12-----------------------------------------|
G|----------------12-9-11-12-------------------------------------------------|
D|---------------------------------------------------------------------------|

d|--10~--10-9-7--------------------------------------------------------------|
A|--------------10-9-7-9-7-5-------------------------------------------------|
F|---------------------------7-6-4-6~--7~--7--6------------------------------|
C|-----------------------------------------------9--7------------------------|
G|---------------------------------------------------------------------------|
D|---------------------------------------------------------------------------|

d|--14-9----------9-14-9---------------------------9-14-9----------9---------|
A|-------10----10--------10---------------------10--------10----10-----------|
F|----------11--------------11---------------11--------------11--------------|
C|-----------------------------11---------11---------------------------------|
G|--------------------------------12-9-12------------------------------------|
D|---------------------------------------------------------------------------|


d|--17-12----------12-17-12----------12-17-12---------------------------12---|
A|--------14----14----------14----14----------14---------------------14------|
F|-----------14----------------14----------------14---------------14---------|
C|--------------------------------------------------14---------14------------|
G|-----------------------------------------------------16-12-16--------------|
D|---------------------------------------------------------------------------|

d|--10-5-------------------5-10-5-------------------5-10-5-------------------|
A|-------7---------------7--------7---------------7--------7-----------------|
F|---------7-----------7------------7-----------7------------7---------------|
C|-----------7-------7----------------7-------7----------------7-------------|
G|-------------9-5-9--------------------9-5-9--------------------9-----------|
D|---------------------------------------------------------------------------|

d|---------------------------------------------------------------------------|
A|---------------------7-9-12~-----------------------------------------------|
F|--------------6-7-10-------------------------------------------------------|
C|--------6-7-9--------------------------------------------------------------|
G|--5-8-9--------------------------------------------------------------------|
D|---------------------------------------------------------------------------|

d|--19-14----------------------------14-19-14----------14-19-14--------------|
A|--------15----------------------15----------15----15----------15-----------|
F|-----------16----------------16----------------16----------------16--------|
C|--------------16----------16----------------------------------------16-----|
G|-----------------17-14-17----------------------------------------------17--|
D|---------------------------------------------------------------------------|

d|----------------16-21-16----------------------------16-21-16---------------|
A|-------------18----------18----------------------18----------18------------|
F|----------18----------------18----------------18----------------18---------|
C|-------18----------------------18----------18----------------------18------|
G|-16-20----------------------------20-16-20----------------------------20---|
D|---------------------------------------------------------------------------|

d|-----------------17-22-17----------17-22-17----------17-22----------17-----|
A|--------------19----------19----19----------19----19-------19----19--------|
F|-----------19----------------19----------------19-------------19-----------|
C|--------19-----------------------------------------------------------------|
G|--17-21--------------------------------------------------------------------|
D|---------------------------------------------------------------------------|

d|--21-16----------------------------16-10-7--------7-13-10----------10------|
A|--------18----------------------18---------9----9---------12----12---------|
F|-----------18----------------18--------------10--------------13------------|
C|--------------18----------18-----------------------------------------------|
G|-----------------20-16-20--------------------------------------------------|
D|---------------------------------------------------------------------------|

d|--14-9----------9-14-9---------------------------9-14-9----------9---------|
A|-------10----10--------10---------------------10--------10----10-----------|
F|----------11--------------11---------------11--------------11--------------|
C|-----------------------------11---------11---------------------------------|
G|--------------------------------12-9-12------------------------------------|
D|---------------------------------------------------------------------------|
D|---------------------------------------------------------------------------|

d|--17-12----------12-17-12----------12-17-12---------------------------12---|
A|--------14----14----------14----14----------14---------------------14------|
F|-----------14----------------14----------------14---------------14---------|
C|--------------------------------------------------14---------14------------|
G|-----------------------------------------------------16-12-16--------------|
D|---------------------------------------------------------------------------|

D|--10-5-------------------5-10-5-------------------5-10-5-------------------|
A|-------7---------------7--------7---------------7--------7-----------------|
F|---------7-----------7------------7-----------7------------7---------------|
C|-----------7-------7----------------7-------7----------------7-------------|
G|-------------9-5-9--------------------9-5-9--------------------9-----------|
D|---------------------------------------------------------------------------|

d|---------------------------------------------------------------------------|
A|---------------------7-9-12~-----------------------------------------------|
F|--------------6-7-10-------------------------------------------------------|
C|--------6-7-9--------------------------------------------------------------|
G|--5-8-9--------------------------------------------------------------------|
D|---------------------------------------------------------------------------|

d|--19-14----------------------------14-19-14----------14-19-14--------------|
A|--------15----------------------15----------15----15----------15-----------|
F|-----------16----------------16----------------16----------------16--------|
C|--------------16----------16----------------------------------------16-----|
G|-----------------17-14-17----------------------------------------------17--|
D|---------------------------------------------------------------------------|

d|----------------16-21-16----------------------------16-21-16---------------|
A|-------------18----------18----------------------18----------18------------|
F|----------18----------------18----------------18----------------18---------|
C|-------18----------------------18----------18----------------------18------|
G|-16-20----------------------------20-16-20----------------------------20---|
D|---------------------------------------------------------------------------|

d|-----------------17-22-17----------17-22-17----------17-22----------17-----|
A|--------------19----------19----19----------19----19-------19----19--------|
F|-----------19----------------19----------------19-------------19-----------|
C|--------19-----------------------------------------------------------------|
G|--17-21--------------------------------------------------------------------|
D|---------------------------------------------------------------------------|

d|--21-16----------------------------16-10-7--------7-13-10----------10--14~-|
A|--------18----------------------18---------9----9---------12----12---------|
F|-----------18----------------18--------------10--------------13------------|
C|--------------18----------18-----------------------------------------------|
G|-----------------20-16-20--------------------------------------------------|
D|---------------------------------------------------------------------------|
Suggest correction
comments
print report bad tab
8 comments total. Showing first comments.
+1 reply
Emo-Slayer 100 May 18, 2008 01:06 PM

i dont have 51 frets might be just me

+1 reply
domino_92 10 Jun 04, 2008 11:17 AM

wow...what kind of weird guitar do u have...mine has 62 :)

+1 reply
Infinite__Death 10 Oct 27, 2008 06:13 PM

yah i agree with emo-slayer i might have to call the company and ask why my guitar doesnt have 51 frets must be a defect

guest
You may want to rate the tab now too:
select rating
Wanna post a correction for this tab? Suggest correction