Oops, an error
Loading. Please wait.

Polaris Tab

version 1
version 1

Intro

Whole song

Interactive

9,854 views 1 this week
1 commentread comment
1 2 3 4 5
x 5
add to favorites
launch autoscroll
font size
0
reset
how to read this tab
guitar tuner
Autoscroll
slow
fast
+/-
esc
set tempo
stop
Help us to improve Ultimate-Guitar.com Take our survey!
×
Author
Difficulty
Tuning
intermediate
D G C F A D
Alright this is one of my new fav songs but there arent a lot of tabs for it so ill put 
what i use but only for intro D standard tuning


------------------------------------------------------------|
------   ---------------------------------------------------|
------   ---------------------------------------------------|
-------------------------------------3-2---2-----5----------|
---------------2-3-------5-3-2-----------5---5-3------------|
-X-12/-1-1-1-5-----3-3-3-------5-5-5------------------------|


---------------------------------------------------------|
---------------------------------------------------------|
---------------------------------------------------------|
-------------------------------2-2-2-3-3-3---------------|
---------2-3-------5-3-2-------------------5-5-5---------|
-1-1-1-5-----3-3-3-------5-5-5---------------------------|


---------------------------------------------------------|
---------------------------------------------------------|
-------------------------------2-0-0h2-0---3h5-----------|
-----------------------------2-----------2---------------|
---------2-3-------5-3-2-0-3-----------------------------|
-1-1-1-5-----3-3-3---------------------------------------|


---------------------------------------------------------|
---------------------------------------------------------|
---------------------------------------------------------|
-------------------------------2-2-2-3-3-3---------------|
---------2-3-------5-3-2-------------------5-------------|
-1-1-1-5-----3-3-3-------5-5-5---------------------------|
Suggest correction
comments
print report bad tab
1 comment total.
0 reply
MetalCountry 36 Mar 28, 2009 05:11 PM

nice try dude.this song is awesome but i can't find the full tab here.If u can, try to tab the guitar pro version which is full and correct.thnx

guest
You may want to rate the tab now too:
select rating
Wanna post a correction for this tab? Suggest correction