Oops, an error
Loading. Please wait.

Bonfire tab

2,809 views 66 this week
1 commentread comment
1 2 3 4 5
x 4
add to favorites
×
Save as Personal and add changes to this tab that will be seen only by you. Learn more ›
×
You can save this tab as Personal to edit and correct it or add notes. All changes will be seen only by you. Learn more »
launch autoscroll
font size
0
reset
how to read this tab
guitar tuner
edit
Autoscroll
slow
fast
+/-
esc
set tempo
stop
Author
Difficulty
[Intro]

e|---------------------------------------------------------------------------|
B|---------------------------------------------------------------------------|
G|---------------------------------------------------------------------------|
D|--7--/--14--\--9--/--14--\--7--/--14--\--9---------------------------------|
A|--7--/--14--\--9--/--14--\--7--/--14--\--9---------------------------------|
E|--5--/--12--\--7--/--12--\--5--/--12--\--7---------------------------------|
   

[Bridge]
    
e|---------------------------------------------------------------------------|
B|---------------------------------------------------------------------------|
G|---------------------------------------------------------------------------|
D|--7-7-7--7-7-7--7-7-7--/--14-14-12--\---9-9-9--9-9-9--9-9-9--/--14-14-14---|
A|--7-7-7--7-7-7--7-7-7--/--14-14-12--\---9-9-9--9-9-9--9-9-9--/--14-14-14---|
E|--5-5-5--5-5-5--5-5-5--/--12-12-12--\---7-7-7--7-7-7--7-7-7--/--12-12-12---|

e|---------------------------------------------------------------------------|
B|---------------------------------------------------------------------------|
G|---------------------------------------------------------------------------|
D|--7-7-7--7-7-7--7-7-7--/--14-14-12--\---9-9-9--9-9-9--9-9-9--/--14-14-14--\|
A|--7-7-7--7-7-7--7-7-7--/--14-14-12--\---9-9-9--9-9-9--9-9-9--/--14-14-14--\|
E|--5-5-5--5-5-5--5-5-5--/--12-12-12--\---7-7-7--7-7-7--7-7-7--/--12-12-12--\|
PM-------------------------------------------------------------------------|
                                                 
e|---------------------------------------------------------------------------|
B|---------------------------------------------------------------------------|
G|---------------------------------------------------------------------------|
D|--7-7-7--7-7-7--7-7-7--/--14-14-12--\---9-9-9--9-9-9--9-9-9----------------|
A|--7-7-7--7-7-7--7-7-7--/--14-14-12--\---9-9-9--9-9-9--9-9-9----------------|
E|--5-5-5--5-5-5--5-5-5--/--12-12-12--\---7-7-7--7-7-7--7-7-7----------------|
PM-------------------------------------------------------------------------|

                                                 
[Chorus]

e|---------------------------------------------------------------------------|
B|---------------------------------------------------------------------------|
G|---------------------------------------------------------------------------|
D|--7-7-7-7-7-7-7-7-7-7-7-7--/--14-14-14-14--\--9-9-9-9-9-9-9-9-9-9-9-9--/---|
A|--7-7-7-7-7-7-7-7-7-7-7-7--/--14-14-14-14--\--9-9-9-9-9-9-9-9-9-9-9-9--/---|
E|--5-5-5-5-5-5-5-5-5-5-5-5--/--12-12-12-12--\--7-7-7-7-7-7-7-7-7-7-7-7--/---|

e|---------------------------------------------------------------------------|
B|---------------------------------------------------------------------------|
G|---------------------------------------------------------------------------|
D|--14-14-14-14--\--7-7-7-7-7-7-7-7-7-7-7-7--/--14-14-14-14--\---------------|
A|--14-14-14-14--\--7-7-7-7-7-7-7-7-7-7-7-7--/--14-14-14-14--\---------------|
E|--12-12-12-12--\--5-5-5-5-5-5-5-5-5-5-5-5--/--12-12-12-12--\---------------|

e|---------------------------------------------------------------------------|
B|---------------------------------------------------------------------------|
G|---------------------------------------------------------------------------|
D|--9-9-9-9-9-9-9-9-9-9-9-9--/--14-14-14-14--\--7----------------------------|
A|--9-9-9-9-9-9-9-9-9-9-9-9--/--14-14-14-14--\--7----------------------------|
E|--7-7-7-7-7-7-7-7-7-7-7-7--/--12-12-12-12--\--5----------------------------|


[Verse]

e|---------------------------------------------------------------------------|
B|---------------------------------------------------------------------------|
G|---------------------------------------------------------------------------|
D|--7--/--14--\--9--/--14--\--7--/--14--\--9--/--14--------------------------|
A|--7--/--14--\--9--/--14--\--7--/--14--\--9--/--14--------------------------|
E|--5--/--12--\--7--/--12--\--5--/--12--\--7--/--12--------------------------|


[Bridge]
    
e|---------------------------------------------------------------------------|
B|---------------------------------------------------------------------------|
G|---------------------------------------------------------------------------|
D|--7-7-7--7-7-7--7-7-7--/--14-14-12--\---9-9-9--9-9-9--9-9-9----------------|
A|--7-7-7--7-7-7--7-7-7--/--14-14-12--\---9-9-9--9-9-9--9-9-9----------------|
E|--5-5-5--5-5-5--5-5-5--/--12-12-12--\---7-7-7--7-7-7--7-7-7----------------|
PM-------------------------------------------------------------------------|

                                                 ^Gradually get louder from here
                                                                                                 

[Chorus]

e|---------------------------------------------------------------------------|
B|---------------------------------------------------------------------------|
G|---------------------------------------------------------------------------|
D|--7-7-7-7-7-7-7-7-7-7-7-7--/--14-14-14-14--\--9-9-9-9-9-9-9-9-9-9-9-9--/---|
A|--7-7-7-7-7-7-7-7-7-7-7-7--/--14-14-14-14--\--9-9-9-9-9-9-9-9-9-9-9-9--/---|
E|--5-5-5-5-5-5-5-5-5-5-5-5--/--12-12-12-12--\--7-7-7-7-7-7-7-7-7-7-7-7--/---|

e|---------------------------------------------------------------------------|
B|---------------------------------------------------------------------------|
G|---------------------------------------------------------------------------|
D|--14-14-14-14--\--7-7-7-7-7-7-7-7-7-7-7-7--/--14-14-14-14--\---------------|
A|--14-14-14-14--\--7-7-7-7-7-7-7-7-7-7-7-7--/--14-14-14-14--\---------------|
E|--12-12-12-12--\--5-5-5-5-5-5-5-5-5-5-5-5--/--12-12-12-12--\---------------|

e|---------------------------------------------------------------------------|
B|---------------------------------------------------------------------------|
G|---------------------------------------------------------------------------|
D|--9-9-9-9-9-9-9-9-9-9-9-9--/--14-14-14-14--\-------------------------------|
A|--9-9-9-9-9-9-9-9-9-9-9-9--/--14-14-14-14--\-------------------------------|
E|--7-7-7-7-7-7-7-7-7-7-7-7--/--12-12-12-12--\-------------------------------|

e|---------------------------------------------------------------------------|
B|---------------------------------------------------------------------------|
G|---------------------------------------------------------------------------|
D|--7-7-7-7-7-7-7-7-7-7-7-7--/--14-14-14-14--\--9-9-9-9-9-9-9-9-9-9-9-9--/---|
A|--7-7-7-7-7-7-7-7-7-7-7-7--/--14-14-14-14--\--9-9-9-9-9-9-9-9-9-9-9-9--/---|
E|--5-5-5-5-5-5-5-5-5-5-5-5--/--12-12-12-12--\--7-7-7-7-7-7-7-7-7-7-7-7--/---|

e|---------------------------------------------------------------------------|
B|---------------------------------------------------------------------------|
G|---------------------------------------------------------------------------|
D|--14-14-14-14--\--7-7-7-7-7-7-7-7-7-7-7-7--/--14-14-14-14--\---------------|
A|--14-14-14-14--\--7-7-7-7-7-7-7-7-7-7-7-7--/--14-14-14-14--\---------------|
E|--12-12-12-12--\--5-5-5-5-5-5-5-5-5-5-5-5--/--12-12-12-12--\---------------|

e|---------------------------------------------------------------------------|
B|---------------------------------------------------------------------------|
G|---------------------------------------------------------------------------|
D|--9-9-9-9-9-9-9-9-9-9-9-9--/--14-14-14-14----------------------------------|
A|--9-9-9-9-9-9-9-9-9-9-9-9--/--14-14-14-14----------------------------------|
E|--7-7-7-7-7-7-7-7-7-7-7-7--/--12-12-12-12----------------------------------|

e|---------------------------------------------------------------------------|
B|---------------------------------------------------------------------------|
G|---------------------------------------------------------------------------| play every chord 16 times
D|--14-----12-----10-----9----------14-----12-----10-----9-------------------|
A|--14-----12-----10-----9----------14-----12-----10-----9-------------------|
E|--12-----10-----8------7----------12-----10-----8------7-------------------|
      
                                                                          
[Verse]

e|---------------------------------------------------------------------------|
B|---------------------------------------------------------------------------|
G|---------------------------------------------------------------------------|
D|--7--/--14--\--9--/--14--\--7--/--14--\--9---------------------------------|
A|--7--/--14--\--9--/--14--\--7--/--14--\--9---------------------------------| Play Gently
E|--5--/--12--\--7--/--12--\--5--/--12--\--7---------------------------------|
   

[Outro]
                   
e|---------------------------------------------------------------------------|
B|---------------------------------------------------------------------------|
G|---------------------------------------------------------------------------|
D|--7-7-7-7-7-7-7-7-7-7-7-7--/--14-14-14-14--\--9-9-9-9-9-9-9-9-9-9-9-9--/---|
A|--7-7-7-7-7-7-7-7-7-7-7-7--/--14-14-14-14--\--9-9-9-9-9-9-9-9-9-9-9-9--/---|
E|--5-5-5-5-5-5-5-5-5-5-5-5--/--12-12-12-12--\--7-7-7-7-7-7-7-7-7-7-7-7--/---|

e|---------------------------------------------------------------------------|
B|---------------------------------------------------------------------------|
G|---------------------------------------------------------------------------|
D|--14-14-14-14--\--7-7-7-7-7-7-7-7-7-7-7-7--/--14-14-14-14--\---------------|
A|--14-14-14-14--\--7-7-7-7-7-7-7-7-7-7-7-7--/--14-14-14-14--\---------------|
E|--12-12-12-12--\--5-5-5-5-5-5-5-5-5-5-5-5--/--12-12-12-12--\---------------|

e|---------------------------------------------------------------------------|
B|---------------------------------------------------------------------------|
G|---------------------------------------------------------------------------|
D|--9-9-9-9-9-9-9-9-9-9-9-9--/--14-14-14-14--\-------------------------------|
A|--9-9-9-9-9-9-9-9-9-9-9-9--/--14-14-14-14--\-------------------------------|
E|--7-7-7-7-7-7-7-7-7-7-7-7--/--12-12-12-12--\-------------------------------|

e|---------------------------------------------------------------------------|
B|---------------------------------------------------------------------------|
G|---------------------------------------------------------------------------|
D|--7-7-7-7-7-7-7-7-7-7-7-7--/--14-14-14-14--\--9-9-9-9-9-9-9-9-9-9-9-9--/---|
A|--7-7-7-7-7-7-7-7-7-7-7-7--/--14-14-14-14--\--9-9-9-9-9-9-9-9-9-9-9-9--/---|
E|--5-5-5-5-5-5-5-5-5-5-5-5--/--12-12-12-12--\--7-7-7-7-7-7-7-7-7-7-7-7--/---|

e|---------------------------------------------------------------------------|
B|---------------------------------------------------------------------------|
G|---------------------------------------------------------------------------|
D|--14-14-14-14--\--7-7-7-7-7-7-7-7-7-7-7-7--/--14-14-14-14--\---------------|
A|--14-14-14-14--\--7-7-7-7-7-7-7-7-7-7-7-7--/--14-14-14-14--\---------------|
E|--12-12-12-12--\--5-5-5-5-5-5-5-5-5-5-5-5--/--12-12-12-12--\---------------|

e|---------------------------------------------------------------------------|
B|---------------------------------------------------------------------------|
G|---------------------------------------------------------------------------|
D|--9-9-9-9-9-9-9-9-9-9-9-9--/--14-14-14-14--\--7----------------------------|
A|--9-9-9-9-9-9-9-9-9-9-9-9--/--14-14-14-14--\--7----------------------------|
E|--7-7-7-7-7-7-7-7-7-7-7-7--/--12-12-12-12--\--5----------------------------|



************************************

| /   Slide up
| \   Slide down
| PM  Palm mute

************************************

            
            
Suggest correction
Creating personal tab
Creating personal tab
You can edit any tab online and save it as your Personal.

You can edit, replace or remove any tab part or add personal notes – all changes will be seen only by you.

Personal tabs can be accessed anytime from any device, even offline.
Learn more »
comments
print report bad tab
1 comment total.
0 reply
jav_ier_16 74 Jan 06, 2017 11:52 PM

by bridge you mean verse, right?

guest
You may want to rate the tab now too:
select rating
Wanna post a correction for this tab? Suggest correction