Oops, an error
Loading. Please wait.

Artist chords

46,359 views 27 this week
17 commentsread comments
1 2 3 4 5
x 34
add to favorites
×
Save as Personal and add changes to this tab that will be seen only by you. Learn more ›
×
You can save this tab as Personal to edit and correct it or add notes. All changes will be seen only by you. Learn more »
launch autoscroll
font size
0
reset
transpose
0
reset
display chords
guitar tuner
edit
Autoscroll
slow
fast
+/-
esc
set tempo
stop
Strumming
There is no strumming pattern for this song yet. and get +5 IQ
-------------------------------------------------------------------------------
                             The Artist - The Hush Sound
-------------------------------------------------------------------------------
Tabbed by: *StraylightRun*
Email: caeticaslies@hotmail.com

Tuning: EADGBe Capo 1

This song is played by two guitars. One does the backing picking to the intro and the
and the other guitar strums throughout.

The chords used in this song are as followed;
     Am     C     G      F      F^     Em
e|----------------3-------------3-----------------------|
B|---1------1-----3------1------1-----------------------|
G|---2-------------------2------2-----------------------|
D|---2------2------------3------3------2----------------|
A|----------3-----2--------------------2----------------|
E|----------------3-------------------------------------|


(This is the picking for the intro and pre-verses)
Intro:
e|------------------------------------------------------|
B|-----4-7-4-2-0---4-7-4-2-0--2--4-0--2-0---------------|
G|------------------------------------------------------|
D|------------------------------------------------------|
A|------------------------------------------------------|
E|------------------------------------------------------| x2
While other guitars strums same chords as verses.

Verse:
Am                   C
I know that you're an artist
G                                     F       F^
But you're the hardest one to deal with
Am                C
Everything that you conceal 
  G                      F       F^
is revealed on your canvas

Am                        C
You find all of your ugly meanings 
G                                   F       F^
in all of the things I find beautiful. 
Am                     C
Do you see the fall is coming? 
G                       F       F^
Come, I’m falling into you. 


Chorus:
C                      G
You percieve all the things
Am                   Em
i'd never of known, oooh
C                         G
love, would you turn out the lights
                     Am    Em   -  let it ring.
Cause we're already home, home


Pre-verse:
e|------------------------------------------------------|
B|-----4-7-4-2-0---4-7-4-2-0--2--4-0--2-0---------------|
G|------------------------------------------------------|
D|------------------------------------------------------|
A|------------------------------------------------------|
E|------------------------------------------------------| x2
While other guitars strums same chords as verses.


Verse:
Am                    C
You painted me in pastel,
          G                           F       F^
Colours that don't show of any boldness,
Am                              C
Cause that's the way you'd love to see me;
G                                  F       F^
So delicate, so weak, so little purpose

Am                        C
But your eyes are made of charcol,
               G                               F       F^
They're black they're so cold, they're so imperfect
Am                     C
Because they see a sleeping world,
G                       F       F^
Where waking isn't worth it.


Chorus:
C                      G
You percieve all the things
Am                   Em
i'd never of known, oooh
C                         G
love, would you turn out the lights
                     Am    Em   -  let it ring.
Cause we're already home, home


Am      Am
Hoow, Hoow
F      Am       G              Am
Can you live without the lies?
Am        Am       F
Oooooh, oooooh, love
F        Am         G
I've had enough of you tonight


(slghtly diferent to other Chorus)
Chorus:
C               G
All of the things
Am                   Em
i'd never of known, oooh
C                         G
love, would you turn out the lights
                     Am    Em
Cause we're already home, home

Chorus:
C                      G
You percieve all the things
Am                   Em
i'd never of known, oooh
C                         G
love, would you turn out the lights
                     Am    Em   -  let it ring.
Cause we're already home, home

It's a really nice song and I think it's really worth learning, especially if you're
sing along to it or play it for someone else to sing!
This is my first tab but i'm very sure it's 100% acurate.

Any questions and email me.

Enjoy!
===============================================================================

            
            
Suggest correction
Creating personal tab
Creating personal tab
You can edit any tab online and save it as your Personal.

You can edit, replace or remove any tab part or add personal notes – all changes will be seen only by you.

Personal tabs can be accessed anytime from any device, even offline.
Learn more »
comments
print report bad tab
17 comments total. Showing first comments.
-2 reply
biggsy2002 10 May 30, 2006 06:14 AM

the intro given should be on capo 2 not 1, to play it on 1, jus move everything down, so 5 8 5 etc

0 reply
Revlin 575 Jul 03, 2006 11:25 AM

I think the litte riff should be capo 2nd too, but other than that it's great.

0 reply
lackofcolor 388 Dec 31, 2006 04:55 PM

Hey this is the intro i just adjusted it to the capo on the 1st like they said ^
( you guys could of done what i said instead of complaining and doing nothing =D

e|------------------------------------------------------|
B|-----5-8-5-3-1---5-8-5-3-1--3--5-1--3-1---------------|
G|------------------------------------------------------|
D|------------------------------------------------------|
A|------------------------------------------------------|
E|------------------------------------------------------| x2

LONG LIVE THE HUSH SOUND

guest
You may want to rate the tab now too:
select rating
Wanna post a correction for this tab? Suggest correction