Oops, an error
Loading. Please wait.

Crawling Towards The Sun bass

version 1
version 1

Whole song

1,804 views 1 this week
2 commentsread comments
1 2 3 4 5
1 last vote to show rating
add to favorites
×
Save as Personal and add changes to this tab that will be seen only by you. Learn more ›
×
You can save this tab as Personal to edit and correct it or add notes. All changes will be seen only by you. Learn more »
launch autoscroll
font size
0
reset
guitar tuner
edit
Autoscroll
slow
fast
+/-
esc
set tempo
stop
Author
Difficulty
-------------------------------------------------------------------------------
			     CRAWLING TOWARDS THE SUN - The Hush Sound
-------------------------------------------------------------------------------

Tabbed By: Flávia "Twiggy"
e-mail: twiggy_tuggy@hotmail.com

Tuning: Standard

The basic of the song is tabbed here. Try to enjoy ^^

Intro:
G|-3----3------------------------------------------------------------------|
D|-----------5----5--------------------------------------------------------|
A|-------------------------------------------------------------------------|
E|-------------------------------------------------------------------------|

G|-3-3-3-3-3-3-3-5-3-------------------------------------------------------|
D|-------------------5-5-5-5-3-3-3-3---------------------------------------|
A|-------------------------------------------------------------------------|
E|-------------------------------------------------------------------------|
"Carousels make laps each night
Like drunks we spin until we're sick
Creepy clowns from one horse towns
Can make their livings on a trick"

G|-3~-5-3-2-3-----3~-5-3-2-3-----------------------------------------------------|
D|-----------5~-3~-----------5~-3~-----------------------------------------------|
A|-------------------------------------------------------------------------------|
E|-------------------------------------------------------------------------------|
"Night covers all our tracks
To break some fragile backs
So we tell some lies
And then we hide from light"

G|-------------------------------------------------------------------------|
D|-------------------------------------------------------------------------|
A|-----------------1-1-1-1-3-3-3-3-----------------1-1-1-1-3~--------------|
E|-3-3-3-3-3-3-3-3-----------------3-3-3-3-3-3-3-3-------------------------|
"One night I fell asleep
And woke up on that sunny street
At first I thought I couldn't
But now I see"

G|-------------------------------------------------------------------------|
D|-------------------------------------------------------------------------|
A|-1~-3~----1~-3~----1-1-1-1-3-3-3-3---------3~-5~-------------------------|
E|-------3~-------3~-----------------3-3-3-3-------------------------------|
"That the shadows kept me hidden
From the light that calls my name
All the creatures stood above me
Now I'm crawling towards the sun"

G|-3----3------------------------------------------------------------------|
D|-----------5----5--------------------------------------------------------|
A|-------------------------------------------------------------------------|
E|-------------------------------------------------------------------------|

G|-3-3-3-3-3-3-3-5-3-------------------------------------------------------|
D|-------------------5-5-5-5-3-3-3-3---------------------------------------|
A|-------------------------------------------------------------------------|
E|-------------------------------------------------------------------------|
"Sandy lips that taste too sweet
Were sour in the summer heat
As the night fell I heard church bells
Say its time to leave"

G|-3~-5-3-2-3-----3~-5-3-2-3-----------------------------------------------------|
D|-----------5~-3~-----------5~-3~-----------------------------------------------|
A|-------------------------------------------------------------------------------|
E|-------------------------------------------------------------------------------|
"Out on the town we went
To carry out missions
Neither you or I
Would ever know sunlight"

G|-------------------------------------------------------------------------|
D|-------------------------------------------------------------------------|
A|-----------------1-1-1-1-3-3-3-3-----------------1-1-1-1-3~--------------|
E|-3-3-3-3-3-3-3-3-----------------3-3-3-3-3-3-3-3-------------------------|
"One night I fell asleep
And woke up on that sunny street
At first I thought I couldn't
But now I see"

G|-------------------------------------------------------------------------|
D|-------------------------------------------------------------------------|
A|-1~-3~----1~-3~----1-1-1-1-3-3-3-3---------3~-5~-------------------------|
E|-------3~-------3~-----------------3-3-3-3-------------------------------|
"That the shadows kept me hidden
From the light that calls my name
All the creatures stood above me
Now I'm crawling towards the sun"

G|-3~-5-3-2-3-----3~-5-3-2-3---------------------------------------------------|
D|-----------5~-3~-----------5~-3-3-3-3-3-3-3-3--------------------------------|
A|-----------------------------------------------------------------------------|
E|-----------------------------------------------------------------------------|
"In the night light, we still shine bright
In the night light, we still shine bright"

G|-3~-5-3-2-3-----3~-5-3-2-3----------------------------------------------------|
D|-----------5~-3~-----------5~-3-----------------------------------------------|
A|------------------------------------------------------------------------------|
E|------------------------------------------------------------------------------|
"In the night light, we still shine bright
In the night light, we still shine bright"

G|-------------------------------------------------------------------------|
D|-------------------------------------------------------------------------|
A|-----------------1-1-1-1-3-3-3-3-----------------1-1-1-1-3-3-3-----------|
E|-3-3-3-3-3-3-3-3-----------------3-3-3-3-3-3-3-3-------------------------|
"One night I fell asleep
And woke up on that sunny street
At first I thought I couldn't
But now I see"

No bass:
"That the shadows kept me hidden
From the light that calls my name
All the creatures stood above me
Now I'm crawling towards the sun"

~ = let ring

            
            
Suggest correction
Creating personal tab
Creating personal tab
You can edit any tab online and save it as your Personal.

You can edit, replace or remove any tab part or add personal notes – all changes will be seen only by you.

Personal tabs can be accessed anytime from any device, even offline.
Learn more »
Give kudos to tab author, rate the tab!
1 2 3 4 5
comments
print report bad tab
2 comments total.
0 reply
Flavia Twiggy 52 Jun 01, 2007 06:25 PM

I missed a few parts and typed the lyric in a wrong way. It's "CANDY lips". There must be more mistakes. I'll check them later!

0 reply
BloodyNighmare 31 Jan 18, 2013 11:21 AM

G|-------------------------------------------------------------------------|
D|-------------------------------------------------------------------------|
A|-----------------1-1-1-1-3-3-3-3-----------------1-1-1-1-3~--------------|
E|-3-3-3-3-3-3-3-3-----------------3-3-3-3-3-3-3-3-------------------------|


sounds more like this

G|-------------------------------------------------------------------------|
D|-------------------------------------------------------------------------|
A|-----------------6-6-6-6-5-5-5-5-----------------6-6-6-6-5~--------------|
E|-3-3-3-3-3-3-3-3-----------------3-3-3-3-3-3-3-3-------------------------|

guest
You may want to rate the tab now too:
select rating
Wanna post a correction for this tab? Suggest correction