Oops, an error
Loading. Please wait.

Market Tab

version 2
version 2

Whole song

198 views 1 this week
no commentswrite comment
1 2 3 4 5
3 more votes to show rating
add to favorites
launch autoscroll
font size
0
reset
how to read this tab
guitar tuner
Autoscroll
slow
fast
+/-
esc
set tempo
stop
Help us to improve Ultimate-Guitar.com Take our survey!
×
Author
Difficulty
Capo
novice
1st fret
The Market: The Hush Sound

Capo 1 (All frets relative to capo)
Order:
Intro
Verse
Chorus
Verse
Chorus
Interlude
End Verse
Chords used G#7, C7, F7, C#7/G

e------------4---0----1----X-------------------------------------------|
B------------4---1----1----X-------------------------------------------|
G------------5---3----2----4-------------------------------------------|
D------------4---2----1----3-------------------------------------------|
A------------6---3----3----4-------------------------------------------|
E------------4---X----1----3-------------------------------------------|

Intro
e----------------------------------------------------------------------|
B----------------------------------------------------------------------|
G----------------------------------------------------------------------|
D----------------------------------------------------------------------|
A----------------------------------------------------------------------|
E---0-1-2-3------------------------------------------------------------|

Verse
e-----------------------------------------------------------------------|
B-----------------------------------------------------------------------|
G----------5---5----3---3---2---2---2---2-------------------------------|
D----------4---4----2---2---1---1---1---1-------------------------------|x2
A----------6---6--3-3-3-3---3---3---3---3-------------------------------|
E--------4---4------------1---1---1---1---------------------------------|

e----------------------------------------------------------------------|
B----------------------------------------------------------------------|
G----------5---5---5------4---4---4-----5---5----3---3---2---2---2---2-|
D----------4---4---4------3---3---3-----4---4----2---2---1---1---1---1-|
A----------6---6---6------4---4---4-----6---6--3-3-3-3---3---3---3---3-|
E--------4--(4)-(4)-----3--(3)-(3)----4---4------------1---1---1---1---|

e-----------------------------------------------------------------------|
B-----------------------------------------------------------------------|
G----------5---5----3---3---2---2---2---2-------------------------------|
D----------4---4----2---2---1---1---1---1-------------------------------|x2
A----------6---6--3-3-3-3---3---3---3---3-------------------------------|
E--------4---4------------1---1---1---1---------------------------------|









Chorus
            G#7   C7   F7
e------------4----3----1------------------------------------------------|
B------------4----5----1------------------------------------------------|
G------------5----3----2------------------------------------------------|
D------------4----5----1------------------------------------------------|x2
A------------6----3----3------------------------------------------------|
E------------4----3----1------------------------------------------------|


Interlude
Guitar 1 plays the chorus
Guitar 2
e--11-11-11-11------9---9--9--9--9---8--8--8--8-------------------------|
B--13-13-13-13-----11--11-11-11-11---9--9--9--9-------------------------|
G-------------------------------------10-10-10--------------------------|
D-----------------------------------------------------------------------|x2
A-----------------------------------------------------------------------|
E-----------------------------------------------------------------------|

End Verse
e-----------------------------------------------------------------------|
B-----------------------------------------------------------------------|
G----------5---5----3---3---2---2---2---2-------------------------------|
D----------4---4----2---2---1---1---1---1-------------------------------|x2
A----------6---6--3-3-3-3---3---3---3---3-------------------------------|
E--------4---4------------1---1---1---1---------------------------------|

e----------------------------------------------------------------------|
B----------------------------------------------------------------------|
G----------5---5---5------4---4---4-----5---5----3---3---2---2---2---2-|
D----------4---4---4------3---3---3-----4---4----2---2---1---1---1---1-|
A----------6---6---6------4---4---4-----6---6--3-3-3-3---3---3---3---3-|
E--------4--(4)-(4)-----3--(3)-(3)----4---4------------1---1---1---1---|

e----------------------------------------------------------------------|
B----------------------------------------------------------------------|
G----------5---5----3---3---2---2---2---2----5---5----3---3--2---------|
D----------4---4----2---2---1---1---1---1----4---4----2---2--1---------|
A----------6---6--3-3-3-3---3---3---3---3----6---6--3-3-3-3--3---------|
E--------4---4------------1---1---1---1----4---4-------------1---------|
Suggest correction
Give kudos to tab author, rate the tab!
1 2 3 4 5
comments
print report bad tab
guest
You may want to rate the tab now too:
select rating
Wanna post a correction for this tab? Suggest correction