Oops, an error
Loading. Please wait.

Medicine Man Bass Tab

1,828 views 1 this week
2 commentsread comments
1 2 3 4 5
excellent!
x 2
add to favorites
launch autoscroll
font size
0
reset
guitar tuner
Tab Pro tools
  • play this tab
  • loop segment
  • change instrument
  • show fretboard
  • metronome
Autoscroll
slow
fast
+/-
esc
set tempo
stop
Contributor
i just want to say that what i'm about to tab is ALL by ear. I do not play bass but this 
what i hear being played.. so sorry if its wrong.


Intro:

keep play just an open D string for the beginning until verse starts
G|-----------------------------------------------------|
D|-0-0-0-0-0-0-0-0-0-0-0-0-0-0-0-0-0-0-0-0-0-0-0-------|
A|-----------------------------------------------------|
E|-----------------------------------------------------|

G|-----------------------------------------------------|
D|-0-0-0-0-0-0-0-0-3-3-3-3-5-5-5-5---------------------|
A|-----------------------------------------------------|
E|-----------------------------------------------------|

Chorus:
G|-----------------------------------------------------|
D|-7-5-3-0-5-0-----------------------------------------|
A|-------------3-4-------------------------------------|  x2
E|-----------------------------------------------------|

G|-----------------------------------------------------|
D|-7-5-3-0-5-0-5-6-------------------------------------|
A|-----------------------------------------------------|
E|-----------------------------------------------------|


the OOOO part is like this

G|-----------------------------------------------------|
D|-0-0-33-5555555--7-7-33-0000000----------------------|
A|-----------------------------------------------------|
E|-----------------------------------------------------|


thats all i have so far:]
comments
We did not receive enough feedback on this tab! Please rate:
print report bad tab
1 2 3 4 5
2 comments total.
0 reply
xXparamoreroxXx wrote on December 18 2008, 02:16 pm

this is actually in drop D tuning... i think thats what its called... but the E string should be tuned to be a D string (lower) and then its right on....

0 reply
Samillerggiw wrote on May 2 2010, 07:21 pm

I believe the bridge ("I don't know where to begin") goes like this:

G|--------------------------|
D|-5--5-0--0-3--3-5-7-------|
A|--------------------------| x3
D|--------------------------|

And the rest of the song is just open on the D string.

I want to post or [tab]
guest
You may want to rate the tab now too:
select rating
Please do not post tabs as comments. Select "correction" instead!