Oops, an error
Loading. Please wait.

Wine Red bass

version 1
version 1

Whole song

5,832 views 1 this week
1 commentread comment
1 2 3 4 5
x 3
add to favorites
×
Save as Personal and add changes to this tab that will be seen only by you. Learn more ›
×
You can save this tab as Personal to edit and correct it or add notes. All changes will be seen only by you. Learn more »
launch autoscroll
font size
0
reset
guitar tuner
edit
Autoscroll
slow
fast
+/-
esc
set tempo
stop
Author
Difficulty
-------------------------------------------------------------------------------
			     Wine Red - The Hush Sound
-------------------------------------------------------------------------------
My first tab here.. Just try it out.. It sounds alright.. If you have any problems bout 
tab, you can email me..
Tabbed By : Vaseline660
e-mail: vaseline660@hotmail.com

Tuning:Standard

Intro

G|-------------------|
D|-------------------|   X 3
A|----3--------------|
E|---------4----3----|

G|------------------------|
D|------------------------|
A|----3-------------------|
E|----------4----3----/11-|

Verse 1

G|------------------------------------------|
D|--------------3--5--3---------------------|  X 2
A|--3--5--6--5------------------------------|
E|-----------------------4--4--4--4--3-3-3--|

Verse 2

G|--------5-5-5-------------------------5---5-----------|
D|------------------------------------------------------|
A|--/3-33--3-3-----------2-5-2----/3-33---3-------------|
E|--------------/4-444-3-------3--------------4-444-3\--|

Chorus

G|-------------------------------------------------------------------------------|
D|---------------------2/3---------------------------------3---------------------|
A|------------6--3--6----------1--1--1--2/3----------6--3-6-6-3----1--1--1--2-3--|
E|--/4-x-1-4-6-------------6--1--1--1-------/4x-1-4-6----------6--1--1--1--------|

Before Verse

G|----------|
D|----------|
A|---1-2-3--|
E|--3-------|

G|----------------------|
D|----------------------|
A|-----3---3------------|
E|--/3--/3---/3-4--4-3--|

Verse 1 X2
Chorus  X1

From 1:43 to 2:01 there is no bassline... This is the part where the drum takes charge 
with the keyboards..

G|-----------------------------------------------------|
D|-----------------------------------------------------|
A|-------6-----------------------6----------1----------|
E|--4---------6----46----8\-4---------6----1--86--8\4--|

G|----------------------------------------------------------------|
D|--------------3----------------------------3--------------------|
A|--------6--3-6-6-3----1-1-1----------6--3-6-6-3----1-1-1--2-3---|
E|--1-4--6----------6--1-1-1--8\4-x4--6----------6--1-1-1---------|

G|-------|
D|-------|
A|-1-2-3-|
E|-------|


| /  slide up
| \  slide down
| h  hammer-on
| p  pull-off
| ~  vibrato
| +  harmonic
| x  Mute note
===============================================================================

            
            
Suggest correction
Creating personal tab
Creating personal tab
You can edit any tab online and save it as your Personal.

You can edit, replace or remove any tab part or add personal notes – all changes will be seen only by you.

Personal tabs can be accessed anytime from any device, even offline.
Learn more »
Give kudos to tab author, rate the tab!
1 2 3 4 5
comments
print report bad tab
1 comment total.
+1 reply
kiss zombies 10 Jun 30, 2008 05:35 PM

This is a really great tab, thank you. I found it hard to read and some things are unnecessary (at least how I played it). Otherwise it's correct. Thank you so much. :D

guest
You may want to rate the tab now too:
select rating
Wanna post a correction for this tab? Suggest correction