Oops, an error
Loading. Please wait.

Peace And Quiet Tab

28 views 1 this week
no commentswrite comment
1 2 3 4 5
2 more votes to show rating
add to favorites
launch autoscroll
font size
0
reset
how to read this tab
guitar tuner
Autoscroll
slow
fast
+/-
esc
set tempo
stop
Help us to improve Ultimate-Guitar.com Take our survey!
×
Author
Difficulty
Tuning
intermediate
D A D G B E
About this tab version
My first version of the song. Was this info helpful? Yes No
The i.l.y's - Peace and quiet


[Intro]

(0:00 - 0:28)
e|-6--6--6--6-\--3--3--3--3--------------------------------------|
B|-7--7--7--7-\--4--4--4--4-----0--0---4-3-0-4--3-0-4--3-0-------|
G|-6--6--6--6-\--3--3--3--3-----4--------------------------------| 
D|---------------------------------------------------------------|
A|---------------------------------------------------------------|
D|---------------------------------------------------------------|(x4)


(0:28 - 1:25)
e|---------------------------------------------------------------|
B|---------------------------------------------------------------|
G|---------------------------------------------------------------|
D|--0--5-5-5-5-5-5--5-0---0---5-0--------------------------------|
A|--0--5-5-5-5-5-5--5-0---0---5-0--------------------------------|      
D|--0--5-5-5-5-5-5--5-0---0---5-0--------------------------------|      

e|---------------------------------------------------------------|       
B|---------------------------------------------------------------|
G|---------------------------------------------------------------|
D|--0--3-3-3-3-3-3--3-0---0---3-0--------------------------------|
A|--0--3-3-3-3-3-3--3-0---0---3-0--------------------------------|
D|--0--3-3-3-3-3-3--3-0---0---3-0--------------------------------|


(1:25 - 1:39)

e|---------------------------------------------------------------|
B|---------------------------------------------------------------|
G|---------------------------------------------------------------|
D|--3--3-3-3-3-3-3--3-3---3---3-3--------------------------------|
A|--3--3-3-3-3-3-3--3-3---3---3-3--------------------------------|
D|--3--3-3-3-3-3-3--3-3---3---3-3--------------------------------|

e|---------------------------------------------------------------|
B|---------------------------------------------------------------|
G|---------------------------------------------------------------|
D|--3--3/-5-5-5-5/--7-7---7---7-7--------------------------------|
A|--3--3/-5-5-5-5/--7-7---7---7-7--------------------------------|
D|--3--3/-5-5-5-5/--7-7---7---7-7--------------------------------|


(1:54 - 2:08)

e|---------------------------------------------------------------|
B|---------------------------------------------------------------|
G|---------------------------------------------------------------|
D|-5-5-0-0----0-0----0-0-----0-0-3-3-0-0----0-0----0-0-----------|
A|-5-5-0-0----0-0----0-0-----0-0-3-3-0-0----0-0----0-0-----------|
D|-5-5-0-0----0-0----0-0-----0-0-3-3-0-0----0-0----0-0-----------|


************************************

| /  slide up
| \  slide down
| h  hammer-on
| p  pull-off
| ~  vibrato
| +  harmonic
| x  Mute note

************************************
Suggest correction
Give kudos to tab author, rate the tab!
1 2 3 4 5
comments
print report bad tab
guest
You may want to rate the tab now too:
select rating
Wanna post a correction for this tab? Suggest correction