Oops, an error
Loading. Please wait.

Cherry Street chords

1,639 views 18 this week
no commentswrite comment
1 2 3 4 5
x 7
add to favorites
×
Save as Personal and add changes to this tab that will be seen only by you. Learn more ›
×
You can save this tab as Personal to edit and correct it or add notes. All changes will be seen only by you. Learn more »
launch autoscroll
font size
0
reset
transpose
0
reset
simplify chords
display chords
guitar tuner
edit
Autoscroll
slow
fast
+/-
esc
set tempo
stop
Strumming
There is no strumming pattern for this song yet. and get +5 IQ
Capo 6th

[Intro]

e|-----------------------|
b|--8-8-7-5-3-0-0-x-0-0--|
G|--0-0-0-0-0-0-0-x-0-0--|
D|------------0-0-x-0-0--|
A|------------x-x-x-x-x--|
E|------------3-3-x-3-3--|x2


[Verse 1]

e|-----------------------|
b|--8-8-7-5-3-0-0-x-0-0--|
G|--0-0-0-0-0-0-0-x-0-0--|
D|------------0-0-x-0-0--|
A|------------x-x-x-x-x--|
E|------------3-3-x-3-3--|x4


[Pre-chorus]

e|-----------------------|
b|--8-8-7-5-3-0-0-x-0-0--|
G|--0-0-0-0-0-0-0-x-0-0--|
D|------------0-0-x-0-0--|
A|------------x-x-x-x-x--|
E|------------3-3-x-3-3--|x2


[Bridge]

e|--3-----x-3----------x-x-----|
b|--3-----x-3-5-7-8-10-x-x-----|
G|--0-----x-0----------x-x-----|
D|--2-----x-2----------x-x-----|
A|--3-----x-3-3-5-7-9--x-x-----|
E|--------x------------x-x-----|


[Chorus]

          C        G         D      G   
It's the way she looks in the city lights
      C           G                    D         Em
With everything around her, she's still shining bright
 C              G            D        Em
Take me to the place where we used to meet,
        C                       D      G
By the little oak tree down on Cherry Street.


[Instrumental]

e|-----------------------|
b|--8-8-7-5-3-0-0-x-0-0--|
G|--0-0-0-0-0-0-0-x-0-0--|
D|------------0-0-x-0-0--|
A|------------x-x-x-x-x--|
E|------------3-3-x-3-3--|x2


[Verse 2]

e|-----------------------|
b|--8-8-7-5-3-0-0-x-0-0--|
G|--0-0-0-0-0-0-0-x-0-0--|
D|------------0-0-x-0-0--|
A|------------x-x-x-x-x--|
E|------------3-3-x-3-3--|x4


[Pre-chorus]
(Mute strums all throughout (Up-Down-Up pattern))

N.C.
Oh and tell me what’s it like to be loved by you
N.C.
Cause everybody wants to be loved by you


[Chorus]

          C        G         D      G   
It's the way she looks in the city lights
      C           G                    D         Em
With everything around her, she's still shining bright
 C              G            D        Em
Take me to the place where we used to meet,
        C                       D      G
By the little oak tree down on Cherry Street.
        C                       D      G
By the little oak tree down on Cherry Street.


[Instrumental]

e|-----------------------|
b|--8-8-7-5-3-0-0-x-0-0--|
G|--0-0-0-0-0-0-0-x-0-0--|
D|------------0-0-x-0-0--|
A|------------x-x-x-x-x--|
E|------------3-3-x-3-3--|x4


[Bridge]

C                      Dsus4
Oh oh, I wanna feel it again,
 D           Dsus4    Em  
Ooh, I wanna feel it again,
D                  
Again, again, again


[Pre-chorus]

C        
 Tell me what it's like to be loved by you,
N.C.           
'Cause everybody wants to be loved by you.


[Chorus]

          C        G         D      G   
It's the way she looks in the city lights
      C           G                    D         Em
With everything around her, she's still shining bright
 C              G            D        Em
Take me to the place where we used to meet,
        C                       D      G 
By the little oak tree down on Cherry Street.
          C        G         D      G   
It's the way she looks in the city lights
      C           G                    D         Em
With everything around her, she's still shining bright
 C              G            D        Em
Take me to the place where we used to meet,
        C                       D      G
By the little oak tree down on Cherry Street.
        C                       D      G
By the little oak tree down on Cherry Street.


[Instrumental]

e|-----------------------|
b|--8-8-7-5-3-0-0-x-0-0--|
G|--0-0-0-0-0-0-0-x-0-0--|
D|------------0-0-x-0-0--|
A|------------x-x-x-x-x--|
E|------------3-3-x-3-3--|

e|--------------------3|
b|--8-8-7-5-3-----3---0|
G|--0-0-0-0-0-2h4---2-0|
D|--------------------0|
A|--------------------x|
E|--------------------3|



************************************

| x  Dead note
| h  Hammer-on 

************************************

            
            
Suggest correction
Creating personal tab
Creating personal tab
You can edit any tab online and save it as your Personal.

You can edit, replace or remove any tab part or add personal notes – all changes will be seen only by you.

Personal tabs can be accessed anytime from any device, even offline.
Learn more »
comments
print report bad tab
guest
You may want to rate the tab now too:
select rating
Wanna post a correction for this tab? Suggest correction