Oops, an error
Loading. Please wait.

Postcards chords

244 views 1 this week
3 commentsread comments
1 2 3 4 5
x 3
add to favorites
×
Save as Personal and add changes to this tab that will be seen only by you. Learn more ›
×
You can save this tab as Personal to edit and correct it or add notes. All changes will be seen only by you. Learn more »
launch autoscroll
font size
0
reset
transpose
0
reset
simplify chords
display chords
guitar tuner
edit
Autoscroll
slow
fast
+/-
esc
set tempo
stop
Author
Difficulty
Strumming
There is no strumming pattern for this song yet. and get +5 IQ
Video https://www.youtube.com/watch?v=sRCcJ6AKGrQ
The Icarus Account - Postcards

Hi there, the intro it's the base of the verse chords, i named the chord sequence so you
can use this chords sequence to help you play.

[Chords]
    D5                                                   
e|--x------------------------------------------------|
B|--3------------------------------------------------|
G|--2------------------------------------------------|
D|--0------------------------------------------------|
A|--0------------------------------------------------|
E|--x------------------------------------------------|


[Intro]
   D5        A           D5          A          F#m         E           F#m7      E
e|-------------------------------------------------------------------------------------------|
B|-------------------------------------------------------------------------------------------|
G|---------------9---9-----------------9---9-------------------------------------------------|
D|---7---7---5/7---7---7---7---7---5/7---7---7----11---11-----9---9-----11---11-----9----9---|
A|-5---5---5-------------5---5---5--------------9----9----9\7---7---7/9----9----9\7---7----7-|
E|-------------------------------------------------------------------------------------------|


[Verse]
 D5        A           D5                   
Hope was written in a note
      A      F#m            E        F#m7                                
Two season ago back when I met you
        E              D5                             
When I met you in the fall
     A               D5                               
The postcard on the wall
       A             F#m                                 
Reads worn out and small
           E            F#m      E              F#m        
"I won't forget you, I won't forget you when I go"
N.C.                                                     
But it never works out like you plan


[Chorus]
                   D5   A  F#m                                   
Well I just wanna find you
 E                 D5             A                                     
So I can take the miles and miles away from you
     F#m7             E                                                 
The miles and miles away from where you are
                      D5   A  F#m                                 
This postcard's to remind you
  E                  D5              A                                  
That I can take the miles and miles away from you
     F#m7             E                   
The miles and miles away from where you are


[Interude]
   D5         A          D5          A          F#m         E           F#m7      E
e|-------------------------------------------------------------------------------------------|
B|-------------------------------------------------------------------------------------------|
G|---------------9---9-----------------9---9-------------------------------------------------|
D|---7---7---5/7---7---7---7---7---5/7---7---7----11---11-----9---9-----11---11-----9----9---|
A|-5---5---5-------------5---5---5--------------9----9----9\7---7---7/9----9----9\7---7----7-|
E|-------------------------------------------------------------------------------------------|


[Verse]
          D5                                          
Now it's May
   A                  D5                              
I wish that you had stayed
     A                F#m            E                    
For more than just a day or two I'd tell you
          F#m                  E        D5        
All the things I never got to like the time
     A                    D5                           
We drove all through the night
      A             F#m                                  
Just talking about life
             E           F#m                             
I should've kissed you
             E                 F#m                      
I should've kissed you in the car
              E                   F#m7                      
But it never works out like you plan


[Chorus]
                   D5   A  F#m                                   
Well I just wanna find you
 E                 D5             A                                     
So I can take the miles and miles away from you
     F#m7             E                                                 
The miles and miles away from where you are
                      D5   A  F#m                                 
This postcard's to remind you
  E                  D5              A                                  
That I can take the miles and miles away from you
     F#m7             E                   
The miles and miles away from where you are


[Bridge]
D5    A  D5 A
F#m7  E       F#m7             E
         The miles and miles away from where you are
D5    A  D5 A
F#m7  E       F#m7             E
         The miles and miles away from where you are


[Verse]
Dsus2         A                  F#m7                                                     
And it never worked out like a plan
                   A               F#m                   
‘Cause you never reached out your hand
               E                                      
To find me To find me at all
Dsus2           A               F#m7                      
And you left a postcard on the wall
           A              F#m                                     
With no return address at all
                   E                                    
To find you I've tried to find you since the 
 D5 A D5             A                 F#m  E  F#m7 E                         
fall    so here's a postcard for your wall


[Outro]
              D5   A  D5                                    
I just wanna find you
 A                 F#m       E                            
So I can take the miles and miles away from you
     F#m7           E                                     
The miles and miles away            
                      D5   A  F#m                                 
This postcard's to remind you
  E                  D5              A                                  
That I can take the miles and miles away from you
     F#m7             E                   
The miles and miles away from where you are                             
     D5             A                                         
The miles and miles away from you
     F#m7             E                             
The miles and miles away from where you are

   D5         A          D5          A          F#m         E           F#m7      E
e|-------------------------------------------------------------------------------------------|
B|-------------------------------------------------------------------------------------------|
G|---------------9---9-----------------9---9-------------------------------------------------|
D|---7---7---5/7---7---7---7---7---5/7---7---7----11---11-----9---9-----11---11-----9----9---|
A|-5---5---5-------------5---5---5--------------9----9----9\7---7---7/9----9----9\7---7----7-|
E|-------------------------------------------------------------------------------------------|
      
 D5                                               
Suggest correction
Creating personal tab
Creating personal tab
You can edit any tab online and save it as your Personal.

You can edit, replace or remove any tab part or add personal notes – all changes will be seen only by you.

Personal tabs can be accessed anytime from any device, even offline.
Learn more »
Give kudos to tab author, rate the tab!
1 2 3 4 5
comments
print report bad tab
3 comments total.
+1 reply
schoben 3,352 Aug 20, 2016 06:13 AM

beautiful song! Great tab, too!!

+1 reply
delb0y1967 3,614 Sep 03, 2016 04:47 AM

I agree with Ben, excellent tab my friend :)

0 reply
guillermopeitto 10,340 Sep 03, 2016 09:34 AM

thanks to both of you, you're so kind

guest
You may want to rate the tab now too:
select rating
Wanna post a correction for this tab? Suggest correction