Oops, an error
Loading. Please wait.

Mortal Kombat Theme tab

97,542 views 432 this week
14 commentsread comments
1 2 3 4 5
x 62
add to favorites
×
Save as Personal and add changes to this tab that will be seen only by you. Learn more ›
×
You can save this tab as Personal to edit and correct it or add notes. All changes will be seen only by you. Learn more »
launch autoscroll
font size
0
reset
how to read this tab
guitar tuner
edit
Autoscroll
slow
fast
+/-
esc
set tempo
stop
Author
[Part A]
(Up til the vocals yell "MORTAL KOMBAT!!!!")
(For a sound like in the song, add some delay. 
I also like to PALM MUTE the whole part.)
e|------------------------------------------------------------------------|
B|---------3---5-3-------5---8---5----------------------------------------|
G|-2-2-5-2---2-------5-5---5---5---5---0-0-4-0-5-0-7-5-------2---5---5-4--|
D|-------------------------------------------------------3-3---3---3------|
A|------------------------------------------------------------------------|
E|------------------------------------------------------------------------|(x2)

[Part B]
(Up til he yells "MORTAL KOMBAT!!!!" again)
e|------------------------------------------------------|
B|------------------------------------------------------|
G|-----------5-------------------------5----------------|
D|-7-7-7-7-5----7-7-7-7-5----7-7-7-7-5----7-7-7--77-77--|
A|------------------------7-----------------------------|
E|------------------------------------------------------|(x3)

[Part C]
(faster now)
e|------------------------------|    |--------------------|
B|------------------------------|    |--------------------|
G|---9--------------------------|    |---9----------------|
D|-7----7-10--7-8--7-10--7-8----|    |-7---7-10-----7-7-7-|
A|---------------------------10-|    |----------10--------|
E|------------------------------|(x3)|--------------------|

e|------------------------------|    |-------------|
B|------------------------------|    |-------------|
G|---9--------------------------|    |-------------|
D|-7----7-10--7-8--7-10--7-8----|    |-------------|
A|---------------------------10-|    |-0--0--0--0--|
E|------------------------------|(x3)|-------------|
PM                                     .  .  .  .

(Take a break here while the scary voice names characters. After the next "MORTAL KOMBAT!!!" play:)


[Part B]
(Up til he yells "MORTAL KOMBAT!!!!" again)
e|------------------------------------------------------|
B|------------------------------------------------------|
G|-----------5-------------------------5----------------|
D|-7-7-7-7-5----7-7-7-7-5----7-7-7-7-5----7-7-7--77-77--|
A|------------------------7-----------------------------|
E|------------------------------------------------------|(x3)

[Part C]
(Ending)
e|--------------------|
B|--------------------|
G|---9----------------|
D|-7---7-10-----7-7-7-|
A|----------10--------|
E|--------------------|

[Part B]
(Up til he yells "MORTAL KOMBAT!!!!" again)
e|------------------------------------------------------|
B|------------------------------------------------------|
G|-----------5-------------------------5----------------|
D|-7-7-7-7-5----7-7-7-7-5----7-7-7-7-5----7-7-7--77-77--|
A|------------------------7-----------------------------|
E|------------------------------------------------------|(x4)

[Part C]
(faster now)
e|------------------------------|    |--------------------|
B|------------------------------|    |--------------------|
G|---9--------------------------|    |---9----------------|
D|-7----7-10--7-8--7-10--7-8----|    |-7---7-10-----7-7-7-|
A|---------------------------10-|    |----------10--------|
E|------------------------------|(x3)|--------------------|

e|------------------------------|    |-------------|
B|------------------------------|    |-------------|
G|---9--------------------------|    |-------------|
D|-7----7-10--7-8--7-10--7-8----|    |-------------|
A|---------------------------10-|    |-0--0--0--0--|
E|------------------------------|(x3)|-------------|
PM                                     .  .  .  .

[Part D]
(Bridge) 
Listen closely
e|-1717-------------18----17-|
B|------1717-1515-15---15----|
G|---------------------------|
D|---------------------------|
A|---------------------------|
E|---------------------------|(x2)

[Part B]
(Up til he yells "MORTAL KOMBAT!!!!" again)
e|------------------------------------------------------|
B|------------------------------------------------------|
G|-----------5-------------------------5----------------|
D|-7-7-7-7-5----7-7-7-7-5----7-7-7-7-5----7-7-7--77-77--|
A|------------------------7-----------------------------|
E|------------------------------------------------------|(x4)

[Part C]
(Ending)
(x2)
e|--------------------|
B|--------------------|
G|---9----------------|
D|-7---7-10-----7-7-7-|
A|----------10--------|
E|--------------------|

[Part A]
(Up til the vocals yell "MORTAL KOMBAT!!!!")
(For a sound like in the song, add some delay. 
I also like to PALM MUTE the whole part.)
e|------------------------------------------------------------------------|
B|---------3---5-3-------5---8---5----------------------------------------|
G|-2-2-5-2---2-------5-5---5---5---5---0-0-4-0-5-0-7-5-------2---5---5-4--|
D|-------------------------------------------------------3-3---3---3------|
A|------------------------------------------------------------------------|
E|------------------------------------------------------------------------|(x3)

(If you want to add a little more OOOMPH to Part B (as I like to when it comes in after Part D), 
just change it into power chords, like this)
e|------------------------------------------------------|
B|------------------------------------------------------|
G|-----------5-------------------------5----------------|
D|-7-7-7-7-5-5--7-7-7-7-5-2--7-7-7-7-5-5--7-7-7--77-77--|
A|-7-7-7-7-5-3--7-7-7-7-5-2--7-7-7-7-5-3--7-7-7--77-77--|
E|-5-5-5-5-3----5-5-5-5-3-0--5-5-5-5-3----5-5-5--55-55--|(x3)


************************************

| PM  Palm mute

************************************
Suggest correction
Creating personal tab
Creating personal tab
You can edit any tab online and save it as your Personal.

You can edit, replace or remove any tab part or add personal notes – all changes will be seen only by you.

Personal tabs can be accessed anytime from any device, even offline.
Learn more »
comments
print report bad tab
14 comments total. Showing first comments.
+2 reply
JimmyPage2247 10 Jun 06, 2006 07:09 PM

wow, this is really good!
keep up the good work!

this song rocks!!!

0 reply
einar 166 Oct 15, 2006 10:18 AM

this sounds really good on bass, had to change slightly fopr strings but nice tab

+1 reply
Invader Jim 210 Nov 15, 2006 12:27 PM

dude this is pwnsauce on a bagel! kick ass

guest
You may want to rate the tab now too:
select rating
Wanna post a correction for this tab? Suggest correction