Oops, an error
Loading. Please wait.

Heavy Metal Weekend Bass Tab

87 views 3 this week
no commentswrite comment
1 2 3 4 5
please rate
add to favorites
launch autoscroll
font size
0
reset
guitar tuner
Tab Pro tools
  • play this tab
  • loop segment
  • change instrument
  • show fretboard
  • metronome
×
Best way to learn
"Heavy Metal Weekend"
Autoscroll
slow
fast
+/-
esc
set tempo
stop
Contributor
Band:The Independents
Song:Heavy Metal Weekend
Album:Back From The Grave

Awesome song, real simple.
Standard tuning.

Intro:
G|----------------12~---|
D|-12----------12-------|
A|----14----14----------|
E|-------15-------------|

Verse:
G|----------------------------------------------------------|
D|----------------------------------------------------------|\
A|-----------------------1-3---------------------------1-3--| \
E|-33333333333333333333--------33333333333333333333333------|  \
                                                                not exact 
G|----------------------------------------------------------|  / amount
D|----------------------------------------------------------| /
A|---------------------------5555555555555555555555555555---|/
E|-5555555555555555555555555--------------------------------|

Chorus:
G|------------------------|
D|------------------------|
A|-5~---3-1-3-1-----------|
E|--------------1-2-2~----|

Bridge:
G|---------------------------------------|
D|-5-5-5-------------5-5-5---------------|
A|--------7-5-7-7-7--------7-5-7-7-7-----|
E|-----------------------------------5---|

Blue Oyster Cult Ending:
G|------------------------|
D|------------------------|
A|-----3-5-------7-8------|
E|-3-3-----5-6-6----------|


That's it, very cool song

Questions or comments?
vanceaase67@hotmail.com
comments
We did not receive enough feedback on this tab! Please rate:
print report bad tab
1 2 3 4 5
I want to post or [tab]
guest
You may want to rate the tab now too:
select rating
Please do not post tabs as comments. Select "correction" instead!