Oops, an error
Loading. Please wait.

Penthouse Cloud Tab

166 views 6 this week
no commentswrite comment
1 2 3 4 5
1 last vote to show rating
add to favorites
launch autoscroll
font size
0
reset
how to read this tab
guitar tuner
Autoscroll
slow
fast
+/-
esc
set tempo
stop
Help us to improve Ultimate-Guitar.com Take our survey!
×
Author
Difficulty
novice
About this tab version
General gist of the outro/solo, aside from some ad-libbing. Was this info helpful? Yes No
Solo Part 1

e|-----7-----------------------------------------7--------8------------------|
B|-----5-------------5------------5--------------5--------7------------------|
G|-------------------4------------4------------------------------------------|
D|---------------------------------------------------------------------------|
A|---------------------------3---------3---6--------7------------------------|
E|-5--------5----4-------4---------------------------------------------------|

e|-----7-----------------------------------------0---------------------------|
B|-----5-------------5------------5------------------------------------------|
G|-------------------4------------4--------------2---------------------------|
D|---------------------------------------------------------------------------|
A|---------------------------3----------3---2---------2----------------------|
E|-5--------5----4-------4---------------------------------------------------|

e|-----7-----------------------------------------7--------8------------------|
B|-----5-------------5------------5--------------5--------7------------------|
G|-------------------4------------4------------------------------------------|
D|---------------------------------------------------------------------------|
A|---------------------------3---------3---6--------7------------------------|
E|-5--------5----4-------4---------------------------------------------------|

e|-----7---------------------------------------------------------------------|
B|-----5-------------5------------5--------------3---------------------------|
G|-------------------4------------4--------------2---------------------------|
D|---------------------------------------------------------------------------|
A|---------------------------3----------3------------------------------------|
E|-5--------5----4-------4------------------2--------------------------------|


Solo Part 2 (+ ad-libbing)

e|---------------------------------------------------------------------------|
B|-----8---8------8----8-----------------------------------------------------|
G|-----7---7------7----7---------10-----10----10----10-----------------------|
D|-------------------------------9------9-----9-----9------------------------|
A|-7-----7-------------------------------------------------------------------|
E|--------------7-----7-------9------9------9------9-------------------------|


This line is played before returning to Part 1
e|---------------------------------------------------------------------------|
B|-----8---8------8----8-----------------------------------------------------|
G|-----7---7------7----7---------10-----10------8-------8--------------------|
D|-------------------------------9------9-------7-------7--------------------|
A|-7-----7----------------------------------6-------6------------------------|
E|--------------7-----7-------9------9---------------------------------------|


************************************
Suggest correction
Give kudos to tab author, rate the tab!
1 2 3 4 5
comments
print report bad tab
guest
You may want to rate the tab now too:
select rating
Wanna post a correction for this tab? Suggest correction