Oops, an error
Loading. Please wait.

Special Affair tab

1,981 views 60 this week
no commentswrite comment
1 2 3 4 5
x 4
add to favorites
×
Save as Personal and add changes to this tab that will be seen only by you. Learn more ›
×
You can save this tab as Personal to edit and correct it or add notes. All changes will be seen only by you. Learn more »
launch autoscroll
font size
0
reset
how to read this tab
guitar tuner
edit
Autoscroll
slow
fast
+/-
esc
set tempo
stop
About this tab version
This tab incorporates the baseline that makes this song unique along with the chords. Also added the progression of chords at the end of each verse that was missing in other versions. Was this info helpful? Yes No
[Intro] 

(Without vocals)
e|------------------------------------------------------------------|
B|------------------------------------------------------------------|
G|------------------------------------------------------------------|
D|------------------------------------------------------------------|
A|----7---------------7---8---7-------7-7-------------7---8---7-----|
E|5-------5---7---8-------------8-5-5-----5-5-7---8-8-----------8---|

e|------------------------------------------------------------------|
B|------------------------------------------------------------------|
G|------------------------------------------------------------------|
D|------------------------------------------------------------------|
A|----7---------------7---8---7---5---5---7---7---8---8-------------|
E|5-------5---7---8-------------8-------------------------4---4-----|

[Verse] 

(Repeated throughout song, whenever there are vocals)

    Am              C                Am            C                Am              C                
e|------------------------------0----------------------------------0----------------------------------0------|
B|------1---------------------------------------------------------------------1------------------------------|
G|------2-2---------------0---------0------2-2---------------0---------0------2-2---------------0---------0--|
D|----2-----------------2-----2---2--------2-2-------------2-----2---2------2-----------------2-----2---2----|
A|--0-------0-0--2-2--3-----3----------0-0-----0-0--2-2--3-----3----------0-------0-0--2-2--3-----3----------|
E|-----------------------------------------------------------------------------------------------------------|
    Dm       Em      F         E
e|--------0------------------------------|
B|------3----------0--------1--------0---|
G|----2----------0--------2--------1-----|
D|--0----------2--------3--------2-------|
A|-----------------------------2---------|
E|-----------0--------1-------(4)--------|


Chords and lyrics:


[Verse 1]

Am             C
Penny for your thoughts, I know what you want
Am             C
I can read your mind even from behind
Am                      C                           Dm      Em          F    E
And fuck what's in your phone, lemme take you home, I wanna take you ho-ome


[Pre-Chorus]

Am                                              C
Cause it's so rare that I'm here, don't plan on staying too long
Am                                C
So you should come here, sit your ass on this throne
Am                            C                          Dm  Em      F   E
This a special affair, better act like you know who I am,    who I a-am


[Chorus]

Am                C                      Am
I bet this Patron make you feel nice and comfortable
C                        Am
Tryna act nice girl your cover's blown
    C
But you already knew that
Dm          Em
You already knew that
F           E
You already knew that


[Interlude]

Am                C Am C Am C Dm Em F E
We can burn one


[Verse 2]

Am                  C       
Biting in the dark, I might break your heart
Am            C    
I can get you high if you wanna climb
Am                 C
Cause fuck leaving alone
                      Dm      Em          F    E
Let me take you home, I wanna take you ho-ome


[Pre-Chorus]

Am                                              C
Cause it's so rare that I'm here, don't plan on staying too long
Am                                C
So you should come here, sit your ass on this throne
Am                            C                          Dm  Em      F   E
This a special affair, better act like you know who I am,    who I a-am


[Chorus]

Am                C                      Am
I bet this Patron make you feel nice and comfortable
C                        Am
Tryna act nice girl your cover's blown
    C
But you already knew that
Dm          Em
You already knew that
F           E
You already knew that

Am                C                      Am
I bet this Patron make you feel nice and comfortable
C                        Am
Tryna act nice girl your cover's blown
    C
But you already knew that
Dm          Em
You already knew that
F           E
You already knew that

Am                C Am C Am C Dm Em F E
We can burn one

            
            
Suggest correction
Creating personal tab
Creating personal tab
You can edit any tab online and save it as your Personal.

You can edit, replace or remove any tab part or add personal notes – all changes will be seen only by you.

Personal tabs can be accessed anytime from any device, even offline.
Learn more »
comments
print report bad tab
guest
You may want to rate the tab now too:
select rating
Wanna post a correction for this tab? Suggest correction