Oops, an error
Loading. Please wait.

Divide Us Tab

31 views 9 this week
no commentswrite comment
1 2 3 4 5
3 more votes to show rating
add to favorites
launch autoscroll
font size
0
reset
how to read this tab
guitar tuner
Autoscroll
slow
fast
+/-
esc
set tempo
stop
Help us to improve Ultimate-Guitar.com Take our survey!
×
Author
Difficulty
novice
   Woooooooah!     Same tricks they used before
e|---------------------------------------------|
B|---------------------------------------------|
G|---------------------------------------------|
D|---------9-9-9-9-11--11--11--11--------------|
A|-9-9-9-9-7-7-7-7-9---9---9---9----9-9-9-9----|
E|-7-7-7-7--------------------------7-7-7-7----|
    They’re trying to divide us but that will only multiply us
e|------------------------------------------------------------|
B|------------------------------------------------------------|
G|------------------------------------------------------------|
D|-----------------9--9--9--9--11-11-11-11--------------------|
A|-6---6---6---6---7--7--7--7--9--9--9--9---------------------|
E|-4---4---4---4----------------------------------------------|
(Now use ska strokes)
E   F#                 B
Woooooah!   Same tricks they used before
G#m               E           F#                  B
   They’re trying to divide us but that will only multiply us


[Verse 1]
B          E             F#                B
Separation, intimidation, brainwashin’ the new generation
G#m               E
They use violence, they are tyrants,
F                     B
  they make laws and they expect silence
B             E
But not us(NO!) we got the beat(YEAH!)
F                        B
  And when the guns smoke they feel the heat
G#m             E
  So take action they’re at your front door
F
  Listen up! One two three four


[Chorus]
B     E   F#                 B
Woooooah!   Same tricks they used before
G#m               E           F#                  B
   They’re trying to divide us but that will only multiply us
B     E   F#                 B
Woooooah!   Same tricks they used before
G#m               E           F#                  B
   They’re trying to divide us but that will only multiply us


[Verse 2]
B          E           F#              B
Depression, aggression, we’re united I guess we’re your ‘pression
G#m                    E
  They got martial arts we got a shot call
F                        B
  And we attack like the lion of Judah
B                          E
And when we’re done you’ll feel the roar
         F#                B
From the people you can no longer ignore
G#m              E
  So take action, they’re at your front door
F
  Listen up! One two three four


[Chorus]
B     E   F#                 B
Woooooah!   Same tricks they used before
G#m               E           F#                  B
   They’re trying to divide us but that will only multiply us
B     E   F#                 B
Woooooah!   Same tricks they used before
G#m               E           F#                  B
   They’re trying to divide us but that will only multiply us


[Solo]
e|--------------------------------------------------|
B|-0-3-4-5--5--5--5--7--7--7-5-----------------4----|
G|-----------------------------7-4--------4------4--|
D|------------------------------------4h6----6------|
A|--------------------------------------------------|
E|--------------------------------------------------|

e|-------------------------------------------------------------|
B|--------------4--4b--4h5-4-4----------5-5-5-5-5/7-7-7-5------|
G|-----4----4-6----------------6-6-4----------------------7-4--|
D|-4h6----6---------------------------6------------------------|
A|-------------------------------------------------------------|
E|-------------------------------------------------------------|

e|------------------------------------------------------------------------------------|
B|---------4-----5-5-5-5-5--5-5-5-5-5-5-5--5-5-5-5---7-7-7-7-7-7-7-7-7-7-7-7-7-7-7-7--|
G|-----4-----4------------------------------------------------------------------------|
D|-4h6---6----------------------------------------------------------------------------|
A|------------------------------------------------------------------------------------|
E|------------------------------------------------------------------------------------|


[Chorus]
B     E   F#                 B
Woooooah!   Same tricks they used before
G#m               E           F#                  B
   They’re trying to divide us but that will only multiply us
B     E   F#                 B
Woooooah!   Same tricks they used before
G#m               E           F#                  B
   They’re trying to divide us but that will only multiply us


[Outro]
e|---------------------------------------------------|
B|-4-4-4-4-4-4-4-4---5-5-5-5-5-5-5-5----------4------|
G|-------------------------------------6--4-6---6-4--|
D|---------------------------------------------------|
A|---------------------------------------------------|
E|---------------------------------------------------|

e|--------------------------------|
B|-4-4-4-5-5--------------4-------|
G|------------6\4--6--4-6---6-4---|
D|--------------------------------|
A|--------------------------------|
E|--------------------------------|

********************************
| h  hammer-on
| b  bend
| \  slide down
********************************
Suggest correction
Give kudos to tab author, rate the tab!
1 2 3 4 5
comments
print report bad tab
guest
You may want to rate the tab now too:
select rating
Wanna post a correction for this tab? Suggest correction