Oops, an error
Loading. Please wait.

Family bass

886 views 6 this week
2 commentsread comments
1 2 3 4 5
1 last vote to show rating
add to favorites
×
Save as Personal and add changes to this tab that will be seen only by you. Learn more ›
×
You can save this tab as Personal to edit and correct it or add notes. All changes will be seen only by you. Learn more »
launch autoscroll
font size
0
reset
guitar tuner
edit
Autoscroll
slow
fast
+/-
esc
set tempo
stop
Author
Difficulty
Tips:
-Song Played with Pick
-The Chorus Section does change up through the song 
 so be aware of when they happen.
-Song is in 12bar phrases (think 12 Bar Blues).
 However don't let the added Bar between verse's 
 and chorus's meddle with your counting. I formatted 
 this tab so you can see this visually.


[Intro]

G|----------|------------|
D|----------|------------|
A|----------|------------|
E|-8--7--6--|-5----------|


[Verse]

"I got a Mother Name Mary..." BASS TACET for 11 bars
G|-------------|-----------|---------|----------|
D|-------------|-----------|---------|----------|
A|-------------|-----------|---------|----------|
E|-------------|-----------|---------|----------|

G|-------------|-----------|---------|----------|
D|-------------|-----------|---------|----------|
A|-------------|-----------|---------|----------|
E|-------------|-----------|---------|----------|

G|-------------|-----------|---------|----------|
D|-------------|-----------|---------|----------|
A|-------------|-----------|---------|----------|
E|-------------|-----------|---------|-8--7--6--|


[Chorus]

 "This is my Family...."
G|--------------------|--------------------|--------------------|--------------------|
D|------------10-8----|------------10-8----|------------10-8----|-----------10-8-----|
A|-----7-7-10------10-|-----7-7-10------10-|-----7-7-10------10-|-----7-7-10-----10--|
E|-8-8----------------|-8-8----------------|-8-8----------------|-8-8----------------|

G|------------10-8----|------------10-8----|--------------------|--------------------|
D|-----7-7-10------10-|-----7-7-10------10-|------------10-8----|------------10-8----|
A|-8-8----------------|-8-8----------------|-----7-7-10------10-|-----7-7-10------10-|
E|--------------------|--------------------|-8-8----------------|-8-8----------------|

                                                                    
G|--------------12-10----|------------10-8----|--------------------|----------|-------|
D|-------9-9-12-------12-|-----7-7-10------10-|------------10-8----|----------|-------|
A|-10-10-----------------|-8-8----------------|-----7-7-10------10-|----------|-------|
E|-----------------------|--------------------|-8-8----------------|-8--7--6--|-5-----|


[Verse]

"I got a Sister named Carol.." BASS TACET for 11 bars
G|-------------|-----------|---------|----------|
D|-------------|-----------|---------|----------|
A|-------------|-----------|---------|----------|
E|-------------|-----------|---------|----------|

G|-------------|-----------|---------|----------|
D|-------------|-----------|---------|----------|
A|-------------|-----------|---------|----------|
E|-------------|-----------|---------|----------|

G|-------------|-----------|---------|----------|
D|-------------|-----------|---------|----------|
A|-------------|-----------|---------|----------|
E|-------------|-----------|---------|-8--7--6--| 


[Chorus]
 
G|--------------------|--------------------|--------------------|--------------------|
D|------------10-8----|------------10-8----|------------10-8----|-----------10-8-----|
A|-----7-7-10------10-|-----7-7-10------10-|-----7-7-10------10-|-----7-7-10-----10--|
E|-8-8----------------|-8-8----------------|-8-8----------------|-8-8----------------|

G|------------10-8----|------------10-8----|--------------------|--------------------|
D|-----7-7-10------10-|-----7-7-10------10-|------------10-8----|------------10-8----|
A|-8-8----------------|-8-8----------------|-----7-7-10------10-|-----7-7-10------10-|
E|--------------------|--------------------|-8-8----------------|-8-8----------------|

                                                                    
G|--------------12-10----|------------10-8----|--------------------|----------------|
D|-------9-9-12-------12-|-----7-7-10------10-|------------10-8----|----------------|
A|-10-10-----------------|-8-8----------------|-----7-7-10------10-|----------------|
E|-----------------------|--------------------|-8-8----------------|-8----7----6----|


[Chorus with Solo]
 
G|--------------------|--------------------|--------------------|--------------------|
D|------------10-8----|------------10-8----|------------10-8----|-----------10-8-----|
A|-----7-7-10------10-|-----7-7-10------10-|-----7-7-10------10-|-----7-7-10-----10--|
E|-8-8----------------|-8-8----------------|-8-8----------------|-8-8----------------|
  
G|--------------------|----------------------|--------------------|--------------------|
D|-----7-7--8--10/----|-15-15-13-13--12--10--|------------10-8----|------------10-8----|
A|-8-8----------------|----------------------|-----7-7-10------10-|-----7-7-10------10-|
E|--------------------|----------------------|-8-8----------------|-8-8----------------|

                                                                    
G|------------------------|------------------|--------------------|----------------|
D|-------12-12-10-9-------|-----10--8-7------|------------10-8----|----------------|
A|-10-10------------12-10-|-8-8---------10-8-|-----7-7-10------10-|----------------|
E|------------------------|------------------|-8-8----------------|-8----7----6----|
  
G|------------|
D|------------|
A|------------|
E|-5----------|
  *Held Out Longer (Fermata)


[Verse]

"The Police come a Knockin'.." BASS TACET for 12 bars
G|-------------|-----------|---------|----------|
D|-------------|-----------|---------|----------|
A|-------------|-----------|---------|----------|
E|-------------|-----------|---------|----------|

G|-------------|-----------|---------|----------|
D|-------------|-----------|---------|----------|
A|-------------|-----------|---------|----------|
E|-------------|-----------|---------|----------|

G|-------------|-----------|---------|----------|
D|-------------|-----------|---------|----------|
A|-------------|-----------|---------|----------|
E|-------------|-----------|---------|----------| 


[Chorus]
 
G|--------------------|--------------------|--------------------|--------------------|
D|------------10-8----|------------10-8----|------------10-8----|-----------10-8-----|
A|-----7-7-10------10-|-----7-7-10------10-|-----7-7-10------10-|-----7-7-10-----10--|
E|-8-8----------------|-8-8----------------|-8-8----------------|-8-8----------------|
  
G|--------------------|----------------------|--------------------|--------------------|
D|-----7-7--8--10/----|-15-15-13-13--12--10--|------------10-8----|------------10-8----|
A|-8-8----------------|----------------------|-----7-7-10------10-|-----7-7-10------10-|
E|--------------------|----------------------|-8-8----------------|-8-8----------------|

                                                                    
G|------------------------|------------------|--------------------|---------------------|
D|-------12-12-10-9-------|-----10--8-7------|------------10-8----|-10-10-8-8-7-7-------|
A|-10-10------------12-10-|-8-8---------10-8-|-----7-7-10------10-|---------------10-10-|
E|------------------------|------------------|-8-8----------------|---------------------|


[Last Chorus]

G|--------------------|--------------------|--------------------|--------------------|
D|------------10-8----|------------10-8----|------------10-8----|-----------10-8-----|
A|-----7-7-10------10-|-----7-7-10------10-|-----7-7-10------10-|-----7-7-10-----10--|
E|-8-8----------------|-8-8----------------|-8-8----------------|-8-8----------------|
  
G|--------------------|----------------------|--------------------|--------------------|
D|-----7-7--8--10/----|-15-15-13-13--12--10--|------------10-8----|------------10-8----|
A|-8-8----------------|----------------------|-----7-7-10------10-|-----7-7-10------10-|
E|--------------------|----------------------|-8-8----------------|-8-8----------------|

                                                                    
G|------------------------|------------------|--------------------|---------------------|
D|-------12-12-10-9-------|-----10--8-7------|--------------------|---------------------|
A|-10-10------------12-10-|-8-8---------10-8-|--------------------|---------------------|
E|------------------------|------------------|-8------------------|-8\------------------|



************************************

| /  Slide up
| \  Slide down

************************************
Suggest correction
Creating personal tab
Creating personal tab
You can edit any tab online and save it as your Personal.

You can edit, replace or remove any tab part or add personal notes – all changes will be seen only by you.

Personal tabs can be accessed anytime from any device, even offline.
Learn more »
Give kudos to tab author, rate the tab!
1 2 3 4 5
comments
print report bad tab
2 comments total.
0 reply
maliq_05 10 Sep 22, 2016 12:34 AM

nice work bro

0 reply
maliq_05 10 Sep 22, 2016 12:55 AM

The Specials - Skinhead Symphony Please. Thanks

guest
You may want to rate the tab now too:
select rating
Wanna post a correction for this tab? Suggest correction