Oops, an error
Loading. Please wait.

Summer Breeze tab

version 1
version 1

Whole song

20,556 views 24 this week
6 commentsread comments
1 2 3 4 5
x 6
add to favorites
×
Save as Personal and add changes to this tab that will be seen only by you. Learn more ›
×
You can save this tab as Personal to edit and correct it or add notes. All changes will be seen only by you. Learn more »
launch autoscroll
font size
0
reset
how to read this tab
guitar tuner
edit
Autoscroll
slow
fast
+/-
esc
set tempo
stop
Author
Summer Breeze - The Isley Brothers

Tabbed by:db1990
Email:seanlovestodance@aol.com

Tuning:standard

e|---0-3-5---0-3-5---0-3-5---0-3-5---0-3-5---0-3-5---0-3-5---0-3-5----------|
B|--------------------------------------------------------------------------|
G|--------------------------------------------------------------------------|
D|--------------------------------------------------------------------------|
A|--------------------------------------------------------------------------|
E|--------------------------------------------------------------------------|

e|--------------------------------------------------------------------------|
B|--------------------------------------------------------------------------|
G|-----------------12---9~--------------------------------------------------|
D|-------------10------------12----10----9h10p9-----------------------------|
A|------10/12--------------------------------------12p10h12~----------------|
E|--------------------------------------------------------------------------|

Cool song, you might recognise it from the saab advert.  
hope you enjoy.

| /  slide up
| \  slide down
| h  hammer-on
| p  pull-off
| ~  vibrato
| +  harmonic
| x  Mute note
Suggest correction
Creating personal tab
Creating personal tab
You can edit any tab online and save it as your Personal.

You can edit, replace or remove any tab part or add personal notes – all changes will be seen only by you.

Personal tabs can be accessed anytime from any device, even offline.
Learn more »
comments
print report bad tab
6 comments total. Showing first comments.
0 reply
hackett1991 78 Nov 05, 2005 11:18 AM

Great tab buddy. keep it up.

0 reply
hackett1991 78 Nov 05, 2005 11:19 AM

yeah!!!!!!
****in great.

0 reply
Daveog 25 Mar 26, 2006 07:45 AM

Excellent tab mate, well done!

guest
You may want to rate the tab now too:
select rating
Wanna post a correction for this tab? Suggest correction