Oops, an error
Loading. Please wait.

Whos That Lady Tab

version 1
version 1

Whole song

Interactive

24,443 views 42 this week
4 commentsread comments
1 2 3 4 5
worth learning
x 4
add to favorites
launch autoscroll
font size
0
reset
how to read this tab
guitar tuner
Tab Pro tools
  • play this tab
  • loop segment
  • change instrument
  • show fretboard
  • metronome
×
Best way to learn
"Whos That Lady"
Autoscroll
slow
fast
+/-
esc
set tempo
stop
Contributor
"Who's That Lady" By The Isley brothers

Fun fast paced tab. As always listen to the song to get the hang of it all.

Main Riff(Whole Song Guitar 1)

  Cm/Bb      Ab
E:-x--xxxxxx--4-444444---|
A:-3--333333--6-666666---|
D:-5--555555--6-666666---|
G:-3--333333--5-555555---| 
B:-4--444444--4-444444---|
E:-3--333333--4-444444---|

Ernie Isley's fill ( Guitar 2)

E:---------------------------------------------|
A:---------------------------------------------|
D:-----------------10-------------------10~~~~-|
G:--------------8~~---8-10-10b12-8b10r8--------|
B:--------13-11--------------------------------|
E:-13b-11--------------------------------------|

I wont bother to go into the solo. Its about 3 to 4 mins long lol.
Enjoy folks!!

I can be reached at Chabar4185@yahoo.com Feedback is always welcomed
comments
print report bad tab
4 comments total. Showing first comments.
0 reply
marmite wrote on March 25 2005, 12:00 am

wrong way up....

E:-3--333333--4-444444---|
B:-4--444444--4-444444---|
G:-3--333333--5-555555---|
D:-5--555555--6-666666---|
A:-3--333333--6-666666---|
E:-x--xxxxxx--4-444444---|



E:-13b-11--------------------------------------|
B:--------13-11--------------------------------|
G:--------------8~~---8-10-10b12-8b10r8--------|
D:-----------------10-------------------10~~~~-|
A:---------------------------------------------|
E:---------------------------------------------|

+1 reply
gibsonLP68 wrote on January 31 2008, 01:14 am

yea u did this shit like upside down.

+1 reply
Fhey wrote on September 1 2008, 01:25 am

He's obviously a leftie.

I want to post or [tab]
guest
You may want to rate the tab now too:
select rating
Please do not post tabs as comments. Select "correction" instead!