Oops, an error
Loading. Please wait.

Going Back To Indiana bass

70 views 1 this week
no commentswrite comment
1 2 3 4 5
3 more votes to show rating
add to favorites
×
Save as Personal and add changes to this tab that will be seen only by you. Learn more ›
×
You can save this tab as Personal to edit and correct it or add notes. All changes will be seen only by you. Learn more »
launch autoscroll
font size
0
reset
guitar tuner
edit
Autoscroll
slow
fast
+/-
esc
set tempo
stop
[Intro]
G|---------------------------------|---------------------------------|
D|3---3---3---3---3---3---3---3----|3--------------------------------|
A|---------------------------------|---------------------------------|
E|---------------------------------|---------------------------------|

[Chorus]
G|---------------------------------|---------------------------------|
D|--------5---5---8---8---5---5----|--------5---5---8---8---5---5----|
A|6---6----------------------------|6---6----------------------------|
E|---------------------------------|---------------------------------|

G|---------------------------------|---------------------------------|
D|---------------------------------|---------------------------------|
A|--------5---5---8---8---5---5----|--------5---5---8---8---5---5----|
E|6---6----------------------------|6---6----------------------------|

G|---------------------------------|---------------------------------|
D|--------7---7---10--10--7---7----|--------5---5---8---8---5---5----|
A|8---8----------------------------|6---6----------------------------|
E|---------------------------------|---------------------------------|

G|---------------------------------|---------------------------------|
D|---------------------------------|---------------------------------|
A|--------5---5---8---8---5---5----|6--------------------------------|
E|6---6----------------------------|---------------------------------|

[Verse]
G|---------------------------------|---------------------------------|
D|--------5---5---8---8---5---5----|--------5---5---8---8---5---5----|
A|6---6----------------------------|6---6----------------------------|
E|---------------------------------|---------------------------------|

G|---------------------------------|---------------------------------|
D|---------------------------------|---------------------------------|
A|--------5---5---8---8---5---5----|--------5---5---8---8---5---6----|
E|6---6----------------------------|6---6----------------------------|

G|---------------------------------|---------------------------------|
D|--------7---7---10--10--7---7----|--------5---5---8---8---5---5----|
A|8---8----------------------------|6---6----------------------------|
E|---------------------------------|---------------------------------|

G|---------------------------------|---------------------------------|
D|---------------------------------|---------------------------------|
A|--------5---5---8---8---5---6----|8---------------------------12-\-|
E|6---6----------------------------|---------------------------------|

[Chorus]
G|---------------------------------|---------------------------------|
D|--------5---5---8---8---5---5----|--------5---5---8---8---5---5----|
A|6---6----------------------------|6---6----------------------------|
E|---------------------------------|---------------------------------|

G|---------------------------------|---------------------------------|
D|---------------------------------|---------------------------------|
A|--------5---5---8---8---5---5----|--------5---5---8---8---5---6----|
E|6---6----------------------------|6---6----------------------------|

G|---------------------------------|---------------------------------|
D|--------7---7---10--10--7---7----|--------5---5---8---8---5---5----|
A|8---8----------------------------|6---6----------------------------|
E|---------------------------------|---------------------------------|

G|--------7---7---10--10--7---7----|10-------------------------------|
D|8---8----------------------------|---------------------------------|
A|---------------------------------|---------------------------------|
E|---------------------------------|---------------------------------|

[Solo]
G|---------------------------------|---------------------------------|
D|---------------------------------|---------------------------------|
A|6-----------6--------------------|6-----------6--------------------|
E|---------------------------------|---------------------------------|

G|---------------------------------|---------------------------------|
D|---------------------------------|---------------------------------|
A|---------------------------------|---------------------------------|
E|6-----------6--------------------|6-----------6--------------------|

G|---------------------------------|---------------------------------|
D|---------------------------------|---------------------------------|
A|8-----------8--------------------|6-----------6--------------------|
E|---------------------------------|---------------------------------|

G|---------------------------------|---------------------------------|
D|---------------------------------|---------------------------------|
A|---------------------------------|8--------------------------------|
E|6-----------6--------------------|---------------------------------|

G|---------------------------------|---------------------------------|
D|---------------------------------|---------------------------------|
A|6-----------6--------------------|6-----------6--------------------|
E|---------------------------------|---------------------------------|

G|---------------------------------|---------------------------------|
D|---------------------------------|---------------------------------|
A|---------------------------------|---------------------------------|
E|6-----------6--------------------|6-----------6--------------------|

G|---------------------------------|---------------------------------|
D|---------------------------------|---------------------------------|
A|8-----------8--------------------|6-----------6--------------------|
E|---------------------------------|---------------------------------|

G|---------------------------------|---------------------------------|
D|---------------------------------|---------------------------------|
A|---------------------------------|8--------------------------------|
E|6-----------6--------------------|---------------------------------|

[Chorus]
G|---------------------------------|---------------------------------|
D|--------5---5---8---8---5---5----|--------5---5---8---8---5---5----|
A|6---6----------------------------|6---6----------------------------|
E|---------------------------------|---------------------------------|

G|---------------------------------|---------------------------------|
D|---------------------------------|---------------------------------|
A|--------5---5---8---8---5---5----|--------5---5---8---8---5---6----|
E|6---6----------------------------|6---6----------------------------|

G|---------------------------------|---------------------------------|
D|--------7---7---10--10--7---7----|--------5---5---8---8---5---5----|
A|8---8----------------------------|6---6----------------------------|
E|---------------------------------|---------------------------------|

G|---------------------------------|---------------------------------|
D|---------------------------------|---------------------------------|
A|--------5---5---8---8---5---7----|8--------------------------------|
E|6---6----------------------------|---------------------------------|

[Verse]
G|---------------------------------|---------------------------------|
D|--------5---5---8---8---5---5----|--------5---5---8---8---5---5----|
A|6---6----------------------------|6---6----------------------------|
E|---------------------------------|---------------------------------|

G|---------------------------------|---------------------------------|
D|---------------------------------|---------------------------------|
A|--------5---5---8---8---5---5----|--------5---5---8---8---5---7----|
E|6---6----------------------------|6---6----------------------------|

G|---------------------------------|---------------------------------|
D|--------7---7---10--10--7---7----|--------5---5---8---8---5---5----|
A|8---8----------------------------|6---6----------------------------|
E|---------------------------------|---------------------------------|

G|---------------------------------|---------------------------------|
D|---------------------------------|---------------------------------|
A|--------5---5---8---8---5---6----|8--------------------------------|
E|6---6----------------------------|---------------------------------|

[Chorus]
G|---------------------------------|---------------------------------|
D|--------5---5---8---8---5---5----|--------5---5---8---8---5---5----|
A|6---6----------------------------|6---6----------------------------|
E|---------------------------------|---------------------------------|

G|---------------------------------|---------------------------------|
D|---------------------------------|---------------------------------|
A|--------5---5---8---8---5---5----|--------5---5---8---8---5---6----|
E|6---6----------------------------|6---6----------------------------|

G|---------------------------------|---------------------------------|
D|--------7---7---10--10--7---7----|--------5---5---8---8---5---5----|
A|8---8----------------------------|6---6----------------------------|
E|---------------------------------|---------------------------------|

G|---------------------------------|---------------------------------|
D|------------------------6---7----|---------------------------------|
A|--------5---5---8---8------------|8---------------------------8----|
E|6---6----------------------------|---------------------------------|

[Interlude]
G|---------------------------------|---------------------------------|
D|--------5---5---8---8---5---5----|--------5---5---8---8---5---5----|
A|6---6----------------------------|6---6----------------------------|
E|---------------------------------|---------------------------------|

G|---------------------------------|---------------------------------|
D|---------------------------------|---------------------------------|
A|--------5---5---8---8---5---5----|--------5---5---8---8---5---7----|
E|6---6----------------------------|6---6----------------------------|

G|---------------------------------|---------------------------------|
D|--------7---7---10--10--7---7----|--------5---5---8---8---5---5----|
A|8---8----------------------------|6---6----------------------------|
E|---------------------------------|---------------------------------|

G|---------------------------------|---------------------------------|
D|---------------------------------|---------------------------------|
A|--------5---5---8---8---5---7----|8--------------------------------|
E|6---6----------------------------|---------------------------------|

G|------------------------5---8----|------------------------5---8----|
D|--------5---5---8---8------------|--------5---5---8---8------------|
A|6---6----------------------------|6---6----------------------------|
E|---------------------------------|---------------------------------|

G|---------------------------------|---------------------------------|
D|------------------------6---8----|------------------------6---8----|
A|--------5---5---8---8------------|--------5---5---8---8------------|
E|6---6----------------------------|6---6----------------------------|

G|------------------------8---10---|------------------------6---8----|
D|--------7---7---10--10-----------|--------5---5---8---8------------|
A|8---8----------------------------|6---6----------------------------|
E|---------------------------------|---------------------------------|

G|---------------------------------|---------------------------------|
D|------------------------6---8----|8---8---7---7---6---6------------|
A|--------5---5---8---8------------|------------------------6---6----|
E|6---6----------------------------|---------------------------------|

G|---------------------------------|---------------------------------|
D|---------------------------------|---------------------------------|
A|8---------------------/-13-------|6--------------------------------|
E|---------------------------------|---------------------------------|

A little break

2:49
G|---------------------------------|---------------------------------|
D|--------5---5---8---8---5---5----|--------5---5---8---8---5---5----|
A|6---6----------------------------|6---6----------------------------|
E|---------------------------------|---------------------------------|

G|---------------------------------|---------------------------------|
D|---------------------------------|---------------------------------|
A|--------5---5---8---8---5---5----|--------5---5---8---5---6---7----|
E|6---6----------------------------|6---6----------------------------|

G|---------------------------------|---------------------------------|
D|--------7---7---10--10--7---7----|--------5---5---8---8---5---5----|
A|8---8----------------------------|6---6----------------------------|
E|---------------------------------|---------------------------------|

G|---------------------------------|------/-10----/-10----/-10-------|
D|------------------------6---8----|---------------------------------|
A|--------5---5---8---8------------|8--------------------------------|
E|6---6----------------------------|---------------------------------|

[Chorus]
G|------------------------5---8----|------------------------5---8----|
D|--------5---5---8---8------------|--------5---5---8---8------------|
A|6---6----------------------------|6---6----------------------------|
E|---------------------------------|---------------------------------|

G|---------------------------------|---------------------------------|
D|------------------------6---8----|------------------------6---8----|
A|--------5---5---8---8------------|--------5---5---8---8------------|
E|6---6----------------------------|6---6----------------------------|

G|------------------------8---10---|---------------------------------|
D|--------7---7---10--10-----------|---------------------------------|
A|8---8----------------------------|6--------------------------------|
E|---------------------------------|---------------------------------|


End on :
G|---------------------------------|---------------------------------|
D|---------------------------------|---------------------------------|
A|---------------------------------|---------------------------------|
E|6--------------------------------|---------------------------------|

**********************

/ = slide up
\ = slide down

**********************

            
            
Suggest correction
Creating personal tab
Creating personal tab
You can edit any tab online and save it as your Personal.

You can edit, replace or remove any tab part or add personal notes – all changes will be seen only by you.

Personal tabs can be accessed anytime from any device, even offline.
Learn more »
Give kudos to tab author, rate the tab!
1 2 3 4 5
comments
print report bad tab
guest
You may want to rate the tab now too:
select rating
Wanna post a correction for this tab? Suggest correction