Oops, an error
Loading. Please wait.

I Want You Back Bass Tab

version 1
version 1

Whole song

Interactive

306,902 views 969 this week
9 commentsread comments
1 2 3 4 5
accurate
x 46
add to favorites
launch autoscroll
font size
0
reset
guitar tuner
Tab Pro tools
  • play this tab
  • loop segment
  • change instrument
  • show fretboard
  • metronome
×
Best way to learn
"I Want You Back"
Autoscroll
slow
fast
+/-
esc
set tempo
stop
This is the right version.
Tabbed by Sean Shannon.
I want you back by The Jackson Five.


[Verse]
        
G|---------------------------------------------------------|
D|-------1-3------------0-1-2-3---------------4-6-4-6------|
A|---2-3-----4----1-3-4---------3-4-----6---6--------------|
E|-4--------------------------------4-6---4----------------|


[Chorus]

G|-----------------------------------------------------------|
D|-6-6-5-5-3-3-0-1-1-----------1---1---0-1-2-3---------------|
A|-------------------4-4-3-3-1---1---1---------3-4-----6-----|
E|-------------------------------------------------4-6---4---|


[Bridge]

G|---1----------------1----------------1----------------1----------|
D|-3---------3------3----------3-----3-----------5----3---------1--|
A|-----3---4------------3-3--4-----------3-3-3-6--4-4---------3----|
E|-------------4--4--------------4------------------------4-4------|

G|---1-----------------1-----------|
D|-3-----------5----3-----1--------|
A|-----3-3-3-6--4-4-----3----------|
E|------------------4-4------------|
comments
print report bad tab
9 comments total. Showing first comments.
0 reply
jake_luvs_bex wrote on August 14 2003, 12:00 am

close but not the rite 1

0 reply
Burnzoid wrote on August 10 2006, 12:36 pm

Ok

-1 reply
ed182 wrote on January 18 2007, 04:09 pm

i prefer this to version to its easier to play

I want to post or [tab]
guest
You may want to rate the tab now too:
select rating
Please do not post tabs as comments. Select "correction" instead!