Oops, an error
Loading. Please wait.

Whos Loving You bass

5,338 views 9 this week
no commentswrite comment
1 2 3 4 5
x 4
add to favorites
×
Save as Personal and add changes to this tab that will be seen only by you. Learn more ›
×
You can save this tab as Personal to edit and correct it or add notes. All changes will be seen only by you. Learn more »
launch autoscroll
font size
0
reset
guitar tuner
edit
Autoscroll
slow
fast
+/-
esc
set tempo
stop
Difficulty
intermediate
This is my first tab. I don't know about the bridge bit.
It was all done by ear because I couldn't find a tab for it on the internet.
 I'm not sure how to write the timings with a tab but you'll get the idea.
This song isn't really for beginner bassists but it's a good song to practice
 your hammer ons and pull offs. Good luck :) (h = hammer on  &  p = pull off)

Play This For The First 2 Verses And Choruses.

G| -------------------------------------------------9-10-11------------7-8-9-|
D| --------------------------------------------------------------------------|
A| ----2--5-6-7-------------2--5-5h7p5h7---7-7-6-6-5---------0--5-4-3--------|
E| 3--3--------0--0-1-2-3--3----------------7---7----------------------------|

G| ----------------------------------------------------|
D| ------------------------------------5h7-5-----5-5---|
A| --3-5--5h7-5--5h7-5---5-5-7------3-------3-5-7-7-7--|
E| -3----3------------7-3-7---0--5-3-----------------3-|

Bridge Bit (Roughly).

G| -----------------------------------------------------------------------------|
D| --7-8-9--7-5-------7-8-9-----------------------------------------------------|
A| ------------7------------5-6-7--0-2-3--3-4-5--5h7-5-3-2-7--------------3-3-5-|
E| 7-----------------7------------------------------------5-3--2-3-5-5-7-7------|

G| --------------|
D| --------------|
A| -5-7-7-9-9-10-|
E| --------------|

Then Back To:

G| -------------------------------------------------9-10-11------------7-8-9-|
D| --------------------------------------------------------------------------|
A| ----2--5-6-7-------------2--5-5h7p5h7---7-7-6-6-5---------0--5-4-3--------|
E| 3--3--------0--0-1-2-3--3----------------7---7----------------------------|

G| -9-10-11------------7-8-9-----------------------------------------------------|
D| -------------------------------------------------------------5h7-5-----5-5----|
A| 5---------0--5-4-3---------3-5--5h7-5--5h7-5---5-5-7------3-------3-5-7-7-7---|
E| -------------------------3----3-------------7-3-7---0--5-3------------------3-|

Repeat Til End.

G| ------------------------|
D| ---3-3h5-3------3h5-3---|
A| -----------5-3-3-----5--|
E| -3--------------------3-|

I don't know if it's exactly right but it's pretty much there. Hope this helps :)

            
            
Suggest correction
Creating personal tab
Creating personal tab
You can edit any tab online and save it as your Personal.

You can edit, replace or remove any tab part or add personal notes – all changes will be seen only by you.

Personal tabs can be accessed anytime from any device, even offline.
Learn more »
comments
print report bad tab
guest
Wanna post a correction for this tab? Suggest correction