Oops, an error
Loading. Please wait.

Shake My Hand bass

283 views 1 this week
1 commentread comment
1 2 3 4 5
x 3
add to favorites
×
Save as Personal and add changes to this tab that will be seen only by you. Learn more ›
×
You can save this tab as Personal to edit and correct it or add notes. All changes will be seen only by you. Learn more »
launch autoscroll
font size
0
reset
guitar tuner
edit
Autoscroll
slow
fast
+/-
esc
set tempo
stop
Author
Difficulty
Tuning - Standard

Intro/Interlude - 0:09-0:18,1:04-1:13
G-------------------------------------|
D----2(x8)-0(X3)-0--------------------|
A-----------------3-0-----------------|
E-3(x4)-------------------------------|

Verse - 0:19-0:45,1:14-1:40
G---------------------------|
D----2(x8)-0(X3)-0----------| (x2)
A-----------------3-0-------|
E-3(x4)---------------------|

G--------------------|
D----2(x8)-0(x8)-----|
A--------------------|
E-3(x4)--------------|

Chorus - 0:46-1:03,1:41-1:59
G----------------------------------|
D----------------------------------| (x1)
A-3(x8)------2(x7)-2/7-7(x3)-5(x4)-|
E------3(x8)-----------------------|

G---------------------------------|
D---------------------------------|
A-3(x8)------2(x16)---------------|
E------3(x8)----------------------|

Bridge - 2:00-3:57
G------------------------------------|
D-5(x7)4-2-0(x7)-----------------0-2-| (x3)
A---------------3-2-0(x7)-0-2(x6)----|
E------------------------3-----------|

G-----------------------------------|
D-5(x7)4-2-0(x7)--------------------| (x1)
A---------------3-2-0(x7)-0---------|
E------------------------3-3(x19)---|

G--------------------|
D-----5-55-55-55-5-5-| (x4) [You can spice this up any way you like]
A--------------------|
E-3/5----------------|

~REST for little guitar part~

G-------|
D-------|
A-3/10--|
E-------|
[Play this little part as many times as you like, when the bass enters after     the 
guitar interlude. The song ends on it]



I'm positive this tab is like 95% correct. Great song. Please 5 star it, thank you =)

            
            
Suggest correction
Creating personal tab
Creating personal tab
You can edit any tab online and save it as your Personal.

You can edit, replace or remove any tab part or add personal notes – all changes will be seen only by you.

Personal tabs can be accessed anytime from any device, even offline.
Learn more »
Give kudos to tab author, rate the tab!
1 2 3 4 5
comments
print report bad tab
1 comment total.
0 reply
CoheedFan28 469 Dec 19, 2011 11:58 AM

For the first part of the chorus: the 5th fret of the A string should be played 4 times after the 7th fret of the A string being played 3 times.

guest
You may want to rate the tab now too:
select rating
Wanna post a correction for this tab? Suggest correction