Oops, an error
Loading. Please wait.

Billy Hunt Bass Tab

585 views 1 this week
no commentswrite comment
1 2 3 4 5
please rate
add to favorites
launch autoscroll
font size
0
reset
guitar tuner
Tab Pro tools
  • play this tab
  • loop segment
  • change instrument
  • show fretboard
  • metronome
Autoscroll
slow
fast
+/-
esc
set tempo
stop
Contributor
THE JAM - BILLY HUNT

THIS IS A GREAT TRACK, FUN TO PLAY ON BASS BUT NOT TOO DIFFICULT. THERE WERE NO
TABS ABOUT SO I HAD A CRACK,
SHOULD BE SPOT ON. ENJOY :)


G---------------------------------------|
D---------------------------------------|
A--15/333320------02-333320------02-----|
E-----------3--333---------3--333-------| x3



G-------------------------5-7-----57----|
D-------5-7------5-7---7--------7---5---|
A-----7-------7-----5--------5----------|
E--5-------5----------------------------| X1



G-------------------------5-7-----7-9-----7----|
D-------5-7------5-7---7--------9-------9------|
A-----7-------7-----5--------7-------7---------|
E--5-------5-----------------------------------| X1



G----------------------------------------------------------------|
D---------------------57--710-12/----57--710-12/-----------------|
A--0--57--710-12/---5-------------5-----------------35--58-10/---|
E-----------------------------------------------3----------------| X1



G------------------------------------|
D------------------------------------|
A--333320------02-333320------02-----|
E--------3--333---------3--333-------| x2



G-------------------------5-7-----5-7---|
D-------5-7------5-7---7--------7-------|
A-----7-------7-----5--------5----------|
E--5-------5----------------------------| X1



G---------------------7--5--------------|
D-------5-7------5-7--------7--5--------|
A-----7-------7-----5------------75-----|
E--5-------5----------------------------| x1



G----------------------------------------------------------------|
D---------------------57--710-12/----57--710-12/-----------------|
A--0--57--710-12/---5-------------5-----------------35--58-10/---|
E-----------------------------------------------3----------------| X1



G---------------------------------------|
D--7---12---5---10-1010/12--------------|
A--5---10---3---8--8-8-/10--------------|
E---------------------------------------| x1



G-------------------------------------------------------|
D--7---12---5---10-----12--12--12--12--12--12--12-------|
A--5---10---3---8----10--10--10--10--10--10--10--10/----|
E-------------------------------------------------------| x1



G--------------------------------------------------|
D-----------------------3--3--3h2------------------|
A--0--0---7--7---5--5------------3--3--3h2-----02--|
E-----------------------------------------3--3-----| x1




G------------------------------------|
D------------------------------------|
A--333320------02-333320------02-----|
E--------3--333---------3--333-------| x4



G-------------------------5-7-----5-7---|
D-------5-7------5-7---7--------7-------|
A-----7-------7-----5--------5----------|
E--5-------5----------------------------| x1



G---------------------------------------|
D-------5-7------5-7--------------------|
A-----7-------7-----5-------------------|
E--5-------5----------------------------| x1



G--------------------------------------------------------------    |-----|
D---------------------57--710-12/----57--710-12/---------------    |-----|
A--0--57--710-12/---5-------------5-----------------35--58-10/-    |---3-|
E-----------------------------------------------3-------------- x2 |-----|



G---------------------------------------|
D---------------------------------------|
A--15/333320------02-333320------02-----|
E-----------3--333---------3--333-------| x3



G---------------------------------------|
D---------------------------------------|
A--3>>>>--------------------------------| finish on this, let ring.
E---------------------------------------|
comments
We did not receive enough feedback on this tab! Please rate:
print report bad tab
1 2 3 4 5
I want to post or [tab]
guest
You may want to rate the tab now too:
select rating
Please do not post tabs as comments. Select "correction" instead!