Oops, an error
Loading. Please wait.

Carnation Bass Tab

28 views 1 this week
no commentswrite comment
1 2 3 4 5
3 more votes to show rating
add to favorites
launch autoscroll
font size
0
reset
guitar tuner
Autoscroll
slow
fast
+/-
esc
set tempo
stop
Help us to improve Ultimate-Guitar.com Take our survey!
×
Author
Difficulty
novice
[Verse 1]

G|----------------|----------------|---------------|----------------| 
D|----------------|----------------|---------------|----------------|
A|----------------|----------------|---------------|-------------5--|
E|--5-----------5-|-/8-----------8-|-\3----------3-|-/6-------------|(x2)


[Chorus]

G|--------------|-------------|--------------|--------------|
D|--------------|-------------|-1---1--3-1-3-|-0---0--2-0-2-|
A|--------------|-------------|--------------|--------------|
E|--3---3-2---2-|-1---1-0---0-|--------------|--------------|


G|----------------|----------------|----------------|----------------|
D|----------------|----------------|----------------|----------------|
A|-2------------2-|-/7---------7-7-|----------------|-5----------5-5-|
E|----------------|----------------|-5-5----------5-|----------------|


[Verse 2]

G|---------------|----------------|---------------|----------------| 
D|---------------|----------------|---------------|----------------|
A|---------------|----------------|---------------|-------------5--|
E|-5-----------5-|-/8-----------8-|-\3----------3-|-/6-------------|(x2)


[Chorus]

G|--------------|-------------|--------------|--------------|
D|--------------|-------------|-1---1--3-1-3-|-0---0--2-0-2-|
A|--------------|-------------|--------------|--------------|
E|--3---3-2---2-|-1---1-0---0-|--------------|--------------|


G|--------------|--------------|--------------|--------------|
D|------------0-|-2---2--2-0---|--------------|-0---0--0-0---|
A|-2---2--2-0---|------------0-|-0---0--0-0-3-|------------0-|
E|--------------|--------------|--------------|--------------|


[Interlude]

G|-------------|--------------|--------------|--------------|
D|-------------|--------------|--------------|--------------|
A|-3--3--3--3--|--1--1--1--1--|--3--3--3--3--|--1--1--1--1--|
E|-------------|--------------|--------------|--------------|


G|--------------|--------------|--------------|--------------|
D|--------------|--------------|--------------|--------------|
A|--0--0--0--0--|--------------|--0--0--0--0--|--------------|
E|--------------|--1--1--1--1--|--------------|--0--0--0--0--|


G|--------------|---------------|--------------|
D|--------------|---------------|--------------|
A|--------------|---------------|----5-------7-|
E|--1--1--1--1--|--3--3--3--5-3-|-0-----0--7---|


[Instrumental]

G|---------------|----------------|---------------|----------------| 
D|---------------|----------------|---------------|----------------|
A|---------------|----------------|---------------|-------------5--|
E|-5-----------5-|-/8-----------8-|-\3----------3-|-/6-------------|(x2)


[Verse 3]

G|----------------|----------------|---------------|----------------|
D|----------------|----------------|---------------|----------------|
A|----------------|----------------|---------------|-------------5--|
E|--5-----------5-|-/8-----------8-|-\3----------3-|-/6-------------|(x2)


[Chorus]

G|--------------|-------------|--------------|--------------|
D|--------------|-------------|-1---1--3-1-3-|-0---0--2-0-2-|
A|--------------|-------------|--------------|--------------|
E|--3---3-2---2-|-1---1-0---0-|--------------|--------------|


G|--------------|--------------|--------------|---------------|
D|------------0-|-2---2--2-0---|--------------|-0---0-0-0-0---|
A|-2---2--2-0---|------------0-|-0---0--0-0-3-|-------------0-|
E|--------------|--------------|--------------|---------------|


[Outro]

G|--------------|----------------|--------------|--------1-------|
D|--------------|--------4-------|--------------|--2---4---4-2-4-|
A|-3---5-6-5-3--|--5---7---7-5-7-|-2---4-5-4-2--|----------------|  
E|--------------|----------------|--------------|----------------|   
                                                                     
                                                                     
G|--------------|----------------|
D|--------------|--------4-------|
A|-0---2-3-2-0--|--5---7---7-5-7-|
E|--------------|----------------|


G|--------------|----------------|--------------|--------1-------|
D|--------------|--------4-------|--------------|--2---4---4-2-4-|   _
A|-3---5-6-5-3--|--5---7---7-5-7-|-2---4-5-4-2--|----------------|    |
E|--------------|----------------|--------------|----------------|    |
                                                                      |
                                                                      | 
G|--------------|---------------|                                     |(x4)
D|--------------|--------4------|                                     |
A|-0---2-3-2-0--|--5---7---7-5--|                                     |
E|--------------|---------------|                                    _|



**********************

| / slide up
| \ slide down

**********************

in regular sequence!
Suggest correction
Give kudos to tab author, rate the tab!
1 2 3 4 5
comments
print report bad tab
guest
You may want to rate the tab now too:
select rating
Wanna post a correction for this tab? Suggest correction