Oops, an error
Loading. Please wait.

David Watts Bass Tab

version 1
version 1

Whole song

Interactive

1,455 views 9 this week
no commentswrite comment
1 2 3 4 5
please rate
add to favorites
launch autoscroll
font size
0
reset
guitar tuner
Tab Pro tools
  • play this tab
  • loop segment
  • change instrument
  • show fretboard
  • metronome
Autoscroll
slow
fast
+/-
esc
set tempo
stop
Contributor
Difficulty
intermediate
THE JAM - DAVID WATTS

MAIN RIFF

"Ba ba ba ba ba, ba ba baaa"
G--------------------|
D---7-7-7-7-7-7-777--|
A--5-5-5-5-5-5-5-----|
E--------------------|

"And I wish I could have what he has got, OI!"
G--------------------|
D--555555557-5-7-----|
A--------------------|
E--------------------|

"Wish I could be like David Watts."
G--------------------|
D--------------------|
A--------------------|
E-5555555555555555---|

"Wish I could like, like David Watts."
G--------------------|
D---9-9-9-9-9-9-990--|
A--7-7-7-7-7-7-7-----|
E--------------------|

"Wish I could be like David Watts."
G--------------------|
D--------------------|
A-0------------------|
E--------------------|


"When I lie on my pillow at night..."

and

"All the girls in the neighbourhood..."
G------------------------------------|
D--4-(x16)---------------------------|
A---------2-(x16)-7-(X16)------------|
E-------------------------5----------|

END

G--------------------|
D---7-7-7-7-7-7-777--|
A--5-5-5-5-5-5-5-----|
E--------------------| ...until fade.
comments
We did not receive enough feedback on this tab! Please rate:
print report bad tab
1 2 3 4 5
I want to post or [tab]
guest
You may want to rate the tab now too:
select rating
Please do not post tabs as comments. Select "correction" instead!