Oops, an error
Loading. Please wait.

Going Underground Bass Tab

version 4
version 4

Whole song

Interactive

719 views 4 this week
1 commentread comment
1 2 3 4 5
please rate
add to favorites
launch autoscroll
font size
0
reset
guitar tuner
Tab Pro tools
  • play this tab
  • loop segment
  • change instrument
  • show fretboard
  • metronome
×
Best way to learn
"Going Underground"
Autoscroll
slow
fast
+/-
esc
set tempo
stop
Contributor
Difficulty
novice
I'm a guitarist who recently had to cover the bass guitar in my band, and couldn't find
a decent tab for this song, so I ended up writing one myself. It may not be the exact
same thing that Bruce Foxton was playing, but it's as near as damnit, and it got me 
through many a gig. Enjoy:

"Some People might...."
G------------------------------------| x2
D-7-5-7----------------7-5-7---------|
A--------5-5--5-5-5-5----------------|
E------------------------------------|
"Something's happening..."
G-------------------------------------------------------------------|
D-----------------1-1-1-1-1-1-1-1----------------1-1-1-1-1-1-1-1----| x1
A-2-2-2-2-2-2-2-2-----------------2-2-2-2-2-2-2-2-------------------|
E-------------------------------------------------------------------|

"I'm so happy that you're..."
G------6-4------6-8------6-4------6-8------------|
D-------------9-----------------9----------------| x1
A-2-2------6--------2-2------6-------------------|
E------------------------------------------------|

"Nuclear text books for.."
G-------------------------------------------------------|
D-----------------------1-1-1-1-1-2-2-2-2-2-4-4-4-4-4---| x1
A-----------2-2-2-2-2-----------------------------------|
E--0-0-2-2----------------------------------------------|

"going underground..."
G-------------------------------------|
D-------------------------------------| x5
A-2-2-2-2-2-2-2-7-7-7-7-79-9-9-9-9-9--|
E-------------------------------------|

---------------------------------------BACK TO START-----------------

"LA LA LA LA..."
G---------------------------------|
D---------------------------------| X4
A--4-4-4-4-2-2-2-2----------------|
E---------------------------------|

"Braying sheep on my..."
G--------------------------------------------------|
D-1-1-1-1-1-2-2-2-2-24-4-4-4-4---------------------| x1
A--------------------------------------------------|
E-------------------------------------2-2-2-2-2-2--|

"Going underground"
G------------------------------------------------------|
D------------------------------------------------------| x2
A--4-4-4-4-4-4-8-8-8-8-8-8-9-9-9-9-9-9-11-11-11-11-11--|
E------------------------------------------------------|

BREAK DOWN
G---------------------/--------------------|
D------1-1-----------/-------1-1-----------| x 2
A-2-2----------------/--2-2----------------|
E-----------0-0-2-2-/------------0-0-2-2---|



"LA LA LA LA.."
G---------------------------------|
D---------------------------------| X4
A--4-4-4-4-2-2-2-2----------------|
E---------------------------------|

"Braying sheep on my.."
G-------------------------------------------|
D-1-1-1-1-1-2-2-2-2-24-4-4-4-4--------------| x1
A-------------------------------------------|
E-----------------------------2-2-2-2-2-2---|

"Going underground"
G-------------------------------------------------------|
D-------------------------------------------------------| x2
A--4-4-4-4-4-4-8-8-8-8-8-8-9-9-9-9-9-9-11-11-11-11-11---|
E-------------------------------------------------------|

"for tomorrow"
G----------------------------------------------------|
D----------- --11 bu 11--bd--------------------------| x1
A----4-----------------------------------------------|
E----------------------------------------------------|
comments
We did not receive enough feedback on this tab! Please rate:
print report bad tab
1 2 3 4 5
1 comment total.
0 reply
xxxxChrisTxxxx wrote on March 11 2014, 05:57 pm

There's a lot more to it than this but probably the best tab so far.

I want to post or [tab]
guest
You may want to rate the tab now too:
select rating
Please do not post tabs as comments. Select "correction" instead!