Oops, an error
Loading. Please wait.

Pretty Green bass

by The Jam
5,539 views 3 this week
no commentswrite comment
1 2 3 4 5
1 last vote to show rating
add to favorites
×
Save as Personal and add changes to this tab that will be seen only by you. Learn more ›
×
You can save this tab as Personal to edit and correct it or add notes. All changes will be seen only by you. Learn more »
launch autoscroll
font size
0
reset
guitar tuner
edit
Autoscroll
slow
fast
+/-
esc
set tempo
stop
Author
Difficulty
Artist: The Jam
Song: Pretty Green
Album: Sound Affects (Track 1)
Year: 1980

Intro:

   G|-----------------|
   D|-----------------| X3
   A|-----------------|
   E|-3--33-3-3-------|

Verse 1:

   G|-----------------|     |-----------------|-----------------|
   D|-----------------| X2  |-----------------|-----------------| X4
   A|-----------------|     |-----------------|-----------------|
   E|-3--33-3-3-------|     |-3--33-3-3-------|-3--33-3-3-------|
                              I've..................green
                              I'm.................machine
                              I'm.....................box
                              It's.................parade

   G|-----------------|     |-----------------|-----------------|
   D|-----------------| X1  |-----------------|-----------------| X4
   A|-----------------|     |-----------------|-----------------|
   E|-3--33-3-3-------|     |-3--33-3-3-------|-3--33-3-3-------|
                              I've..................green
                              I'm.................counter
                              He's..................water
                              It's...................more

Chorus:

   G|-----------------|-----------------|
   D|-----------------|-----------------|
   A|-----------------|-----------------|
   E|-7-7-7-7-7-7-7-7-|-7-7-7-7-7-7-7-7-|
      This......................society

   G|-----------------|-----------------|
   D|-----------------|-----------------|
   A|-----------------|-----------------|
   E|-8-8-8-8-8-8-8-8-|-8-8-8-8-8--10---|
      You..........................no

Verse 2:

   G|-----------------|     |-----------------|-----------------|
   D|-----------------| X2  |-----------------|-----------------| X4
   A|-----------------|     |-----------------|-----------------|
   E|-3--33-3-3-------|     |-3--33-3-3-------|-3--33-3-3-------|
                              I've..................green
                              I'm.................machine
                              I'm.....................box
                              It's.................parade

Chorus:

   G|-----------------|-----------------|
   D|-----------------|-----------------|
   A|-----------------|-----------------|
   E|-7-7-7-7-7-7-7-7-|-7-7-7-7-7-7-7-7-|
      This......................society

   G|-----------------|-----------------|
   D|-----------------|-----------------|
   A|-----------------|-----------------|
   E|-8-8-8-8-8-8-8-8-|-8-8-8-8-8--10---|
      You..........................no

Interlude:

   G|-----------------|-----------------|
   D|-----------------|-----------------|
   A|-----------------|---------------5-|
   E|-3--33-3-3-------|-3--33-3-3-------|

   G|-----------------------------|
   D|-----------------------------| X2
   A|-7--7-7--7-7-5-3--3-3--3-3-5-|
   E|-----------------------------|
      And................school
      It's..................own

   G|-----------------------------|-----------------------------|
   D|-----------------------------|-----------------------------|
   A|-7--7-7--7-7-5-3--3-3--3-3---|-3-3--3-3------5---7---5-----|
   E|-----------------------------|-----------------------------|
      That.................fist    It's...this

Solo:

   G|----------------------------------|
   D|----------------------------------| X4
   A|----------------------------------|
   E|-3--------------------------------|

Verse 3:

   G|-----------------|-----------------|
   D|-----------------|-----------------| X8
   A|-----------------|-----------------|
   E|-5--55-5-5-------|-5--55-5-5-------|
      I've..................green
      I'm.................machine
      I'm.....................box
      It's.................parade
      I've..................green
      I'm.................counter
      He's..................water
      It's...................more

Chorus 2:

   G|-----------------|-----------------|
   D|-----------------|-----------------|
   A|-----------------|-----------------|
   E|-9-9-9-9-9-9-9-9-|-9-9-9-9-9-9-9-9-|
      This......................society

   G|-------------------------|-------------------------|
   D|-------------------------|-------------------------|
   A|-------------------------|-------------------------|
   E|-10-10-10-10-10-10-10-10-|-10-10-10-10-10--12------|
      You.......................................no

Verse 4:

   G|-----------------|     |-----------------|-----------------|
   D|-----------------| X2  |-----------------|-----------------| X1
   A|-----------------|     |-----------------|-----------------|
   E|-5--55-5-5-------|     |-5--55-5-5-------|-5--55-5-5-------|
                              I've..................green

Outro:

   G|-----------------|
   D|-----------------| X5
   A|-----------------|
   E|-5--55-5-5-------|

            
            
Suggest correction
Creating personal tab
Creating personal tab
You can edit any tab online and save it as your Personal.

You can edit, replace or remove any tab part or add personal notes – all changes will be seen only by you.

Personal tabs can be accessed anytime from any device, even offline.
Learn more »
Give kudos to tab author, rate the tab!
1 2 3 4 5
comments
print report bad tab
guest
You may want to rate the tab now too:
select rating
Wanna post a correction for this tab? Suggest correction