Oops, an error
Loading. Please wait.

Thats Entertainment bass

version 2
version 2

Whole song

Interactive

by The Jam
8,924 views 15 this week
no commentswrite comment
1 2 3 4 5
x 6
add to favorites
×
Save as Personal and add changes to this tab that will be seen only by you. Learn more ›
×
You can save this tab as Personal to edit and correct it or add notes. All changes will be seen only by you. Learn more »
launch autoscroll
font size
0
reset
guitar tuner
backing track
0:00
0:00
edit
Autoscroll
slow
fast
+/-
esc
set tempo
stop
Author
Difficulty
Artist: The Jam
Song: That's Entertainment
Album: Sound Affects (Track 6)
Year: 1980

Note:

   There are three different versions of this song, and if you have the album 'Sound 
this is the tab for the album version.

Intro:

   G|-------------------------------|-------------------------------|
   D|-------------------------------|-------------------------------|
   A|-------------------------------|-1---1----1-1----------------1-|
   E|-------------------------1---3-|---------------3-3-3-3-3-3-3---|

   G|-------------------------------|-------------------------------|
   D|-------------------------------|-------------------------------|
   A|-3---3----3-3----------------1-|-1---1----1-1----------------1-|
   E|---------------3-3-3-3-3-3-3---|---------------3-3-3-3-3-3-3---|

Verse 1:

   G|-------------------------------|
   D|-------------------------------| X4
   A|-1---1----1-1----------------1-|
   E|---------------3-3-3-3-3-3-3---|
        A...................siren
        Pneumatic........concrete
        A.................howling
        The..............blinking

Chorus:

   G|-------------------------------|
   D|-------------------------------| X2
   A|-3---3----3-3----------------1-|
   E|---------------3-3-3-3-3-3-3---|
      That's   entertainment
      That's   entertainment

Bridge:

   G|-------------------------------|
   D|-------------------------------| X1
   A|-1---1----1-1----------------1-|
   E|---------------3-3-3-3-3-3-3---|

Verse 2:

   G|-------------------------------|
   D|----------3--------------------| X4
   A|-1---3---5-5-----------------1-|
   E|---------------3-3-3-3-3-3-3---|
        A...................boots
        An..................booth
        Paint.................cat
        Lights..............balls

Chorus:

   G|-------------------------------|
   D|-------------------------------| X2
   A|-3---3----3-3----------------1-|
   E|---------------3-3-3-3-3-3-3---|
      That's   entertainment
      That's   entertainment

Bridge:

   G|-------------------------------|
   D|-------------------------------| X2
   A|-1---1----1-1----------------1-|
   E|---------------3-3-3-3-3-3-3---|
      Laaaaaaaa  la la la la laaaaa...
   ...aaaaaaaaa  la la la la laaaaa...

Verse 3:

   G|-------------------------------|
   D|-------------------------------| X4
   A|-1---1----1-1----------------1-|
   E|---------------3-3-3-3-3-3-3---|
        Days...............monday
        Pissing.........wednesday
        Watching..............tea
        A...................walls

Chorus:

   G|-------------------------------|
   D|-------------------------------| X2
   A|-3---3----3-3----------------1-|
   E|---------------3-3-3-3-3-3-3---|
      That's   entertainment
      That's   entertainment

Bridge:

   G|-------------------------------|
   D|-------------------------------| X2
   A|-1---1----1-1----------------1-|
   E|---------------3-3-3-3-3-3-3---|
                 La la la la laaaaa...
   ...aaaaaaaaa  la la la la laaaaa...

Verse 4:

   G|-------------------------------|
   D|----------3--------------------| X4
   A|-1---3---5-5-----------------1-|
   E|---------------3-3-3-3-3-3-3---|
        Waking............morning
        Opening............petrol
        An...................yard
        Watching.........holidays

Chorus:

   G|-------------------------------|
   D|-------------------------------| X2
   A|-3---3----3-3----------------1-|
   E|---------------3-3-3-3-3-3-3---|
      That's   entertainment
      That's   entertainment

Bridge:

   G|-------------------------------|     |-------------------------------|
   D|-------------------------------| X3  |-------------------------------|
   A|-1---1----1-1----------------1-|     |-3---3----3-3----------------1-|
   E|---------------3-3-3-3-3-3-3---|     |---------------3-3-3-3-3-3-3---|
      Laaaaaaaa  la la la la laaaaa...
   ...aaaaaaaaa  la la la la laaaaa...
   ...aaaaaaaaa  la la la la laaaaa.........aaaaaaaaa  la la la la laaaaa...

Bridge:

   G|-------------------------------|
   D|-------------------------------| X1
   A|-1---1----1-1----------------1-|
   E|---------------3-3-3-3-3-3-3---|

Verse 5:

   G|-------------------------------|
   D|----------3--------------------| X4
   A|-1---3---5-5-----------------1-|
   E|---------------3-3-3-3-3-3-3---|
        Waking.........cigarettes
        Cuddling..........perfume
        A..................tarmac
        Feeding..............away

Chorus:

   G|-------------------------------|
   D|-------------------------------| X2
   A|-3---3----3-3----------------1-|
   E|---------------3-3-3-3-3-3-3---|
      That's   entertainment
      That's   entertainment

Bridge:

   G|-------------------------------|
   D|-------------------------------| X1
   A|-1---1----1-1----------------1-|
   E|---------------3-3-3-3-3-3-3---|

Verse 6:

   G|-------------------------------|
   D|-------------------------------| X4
   A|-1---1----1-1----------------1-|
   E|---------------3-3-3-3-3-3-3---|
        Two..............midnight
        Two..............solitude
        Getting.............buses
        Reading...........affairs

Chorus:

   G|-------------------------------|
   D|-------------------------------| X2
   A|-3---3----3-3----------------1-|
   E|---------------3-3-3-3-3-3-3---|
      That's   entertainment
      That's   entertainment

Outro:

   G|-------------------------------|     |-------------------------------|
   D|-------------------------------| X3  |-------------------------------|
   A|-1---1----1-1----------------1-|     |-3---3----3-3----------------1-|
   E|---------------3-3-3-3-3-3-3---|     |---------------3-3-3-3-3-3-3---|
      Laaaaaaaa  la la la la laaaaa...
   ...aaaaaaaaa  la la la la laaaaa...
   ...aaaaaaaaa  la la la la laaaaa.........aaaaaaaaa  la la la la laaaaa...

   G|-------------------------------|     |-------------------------------|
   D|----------3--------------------| X3  |-------------------------------|
   A|-1---3---5-5-----------------1-|     |-3---3----3-3----------------1-|
   E|---------------3-3-3-3-3-3-3---|     |---------------3-3-3-3-3-3-3---|
                 La la la la laaaaa...
   ...aaaaaaaaa  la la la la laaaaa...
   ...aaaaaaaaa  la la la la laaaaa.........aaaaaaaaa  la la la la laaaaa...

   Gradually turn down the volume as recommended on the track:

   G|-------------------------------|     |-------------------------------|
   D|-------------------------------| X3  |-------------------------------|
   A|-1---1----1-1----------------1-|     |-3---3----3-3----------------1-|
   E|---------------3-3-3-3-3-3-3---|     |---------------3-3-3-3-3-3-3---|
      Laaaaaaaa  la la la la laaaaa...
   ...aaaaaaaaa  la la la la laaaaa...
   ...aaaaaaaaa  la la la la laaaaa.........aaaaaaaaa  la la la la laaaaa...

   G|-------------------------------|     |-------------------------------|
   D|----------3--------------------| X3  |-------------------------------|
   A|-1---3---5-5-----------------1-|     |-3---3----3-3----------------1-|
   E|---------------3-3-3-3-3-3-3---|     |---------------3-3-3-3-3-3-3---|
                 La la la la laaaaa...
   ...aaaaaaaaa  la la la la laaaaa...
   ...aaaaaaaaa  la la la la laaaaa.........aaaaaaaaa  la la la la laaaaa...
Suggest correction
Creating personal tab
Creating personal tab
You can edit any tab online and save it as your Personal.

You can edit, replace or remove any tab part or add personal notes – all changes will be seen only by you.

Personal tabs can be accessed anytime from any device, even offline.
Learn more »
comments
print report bad tab
guest
You may want to rate the tab now too:
select rating
Wanna post a correction for this tab? Suggest correction