Oops, an error
Loading. Please wait.

The Bitterest Pill Tab

version 1
version 1

Whole song

Interactive

7,247 views 6 this week
2 commentsread comments
1 2 3 4 5
x 3
add to favorites
launch autoscroll
font size
0
reset
how to read this tab
guitar tuner
×
Best way to learn
"The Bitterest Pill"
Autoscroll
slow
fast
+/-
esc
set tempo
stop
This is 100% correct so enjoy!!!
This is my first tab so hopefully there will be more to come!

E|-------------------------------0-----------------------|
B|--10-------10--8------8--7--------3-3h5-3h5-3h5-3h5----|
G|-----11----------9---------8--2------------------------| x2
D|--------12---------10----------------------------------|
A|-------------------------------------------------------|
E|-------------------------------------------------------|


Outro
E|-8-----------7----------5--------7--------9----------10--|
B|-8-----------7-------------------------------------------|
G|-9-----------7-----4h6------6h7------7h9--------9h11-----|
D|-10----------9-------------------------------------------|
A|---------------------------------------------------------|
E|---------------------------------------------------------|

E|---------12----------14----------16----------18--|
B|-------------------------------------------------|
G|--11h12-------12h14-------14h16-------16h18------| x2
D|-------------------------------------------------|
A|-------------------------------------------------|
E|-------------------------------------------------|
Suggest correction
Give kudos to tab author, rate the tab!
1 2 3 4 5
comments
print report bad tab
2 comments total.
0 reply
Gristlepig 10 Jan 26, 2013 05:20 PM

this is hardly 100% correct. Just play it and listen.

0 reply
stewart.norton. 108 Sep 28, 2013 06:33 AM

Intro is....
E|-------------------------------------------------------|
B|--10-------10--8------8--7-----------------------------|
G|-----11----------9---------7-----9---7-----------------| x2
D|--------12---------10--------7-------------------------|
A|-------------------------------------------------------|
E|-------------------------------------------------------|

guest
You may want to rate the tab now too:
select rating
Wanna post a correction for this tab? Suggest correction